Song name
# A B C D E F G H I J K L M N O P Q R S T U V W X Y Z

Bill Monroe - Jerusalem Ridge tab

~TheKidGuitar_
 Note: This was originally played on a violin. To get a feel of the song before trying 
to play, go here: http://www.youtube.com/watch?v=bpzoLAwZ-gs

e|---------------------------------------------------------------------------|
B|---------------------------------------------------------------------------|
G|---------------------------------------2-0---------------------------------|
D|-------0-2--2-3-2-0-2-0------------0-2-----2-0---2-0-----------------------|
A|--0-2-3------------3---3-2----0-2-3------------3-----3-2-------------------|
E|---------------------------3-----------------------------3-----------------|
                                         Repeat First Line Then...
e|---------------------------------------------------------------------------|
B|---------------------------------------------------------------------------|
G|---------------------------------------------------------------------------|
D|-------0-2-0--2--0---------------------------------------------------------|
A|--0-2-3-----3------3--2---0------------------------------------------------|
E|------------------------3--------------------------------------------------|
Tap to rate this tab
 
# A B C D E F G H I J K L M N O P Q R S T U V W X Y Z