Song name
# A B C D E F G H I J K L M N O P Q R S T U V W X Y Z

Bill Withers - Use Me tab

Acoustic part

E|-x-x-x-x-x-x-x-x-x-x-x-x-x-x-x---------------------------------|
B|-8-8-8-8-x-x-8-8-x-8-8-8-8-8-8---------------------------------|
G|-7-7-7-7-x-x-7-7-x-7-7-7-7-7-7---------------------------------|
D|-x-x-x-x-x-x-x-x-x-x-x-x-x-x-x---------------------------------|
A|-7-7-7-7-x-x-7-7-x-7-7-7-7-7-7---------------------------------|
E|-x-x-x-x-x-x-x-x-x-x-x-x-x-x-x---------------------------------|

E|-x-x-x-x-x-x-x-x-x-x-x-x-x-x-x---------------------------------|
B|-x-x-x-x-0-0-0-0-x-0-0-0-0-0-0---------------------------------|
G|-6-6-6-6-6-6-6-6-x-6-6-6-6-6-6---------------------------------|
D|-5-5-5-5-5-5-5-5-x-5-5-5-5-5-5---------------------------------|
A|-x-x-x-x-x-x-x-x-x-x-x-x-x-x-x---------------------------------|
E|-5-5-5-5-5-5-5-5-x-5-5-5-5-5-5---------------------------------|

Piano Part
E|---------------------------------------------------------------|
B|---------------------------------------------------------------|
G|---------------------------------------------------------------|
D|-0-2-5-2-0-5-2-0-5-2-0---2---------0---------------------------|
A|-----------------------4-------2-4-----------------------------|
E|---------------------------------------------------------------|

E|---------------------------------------------------------------|
B|---------------------------------------------------------------|
G|---------------------------------------------------------------|
D|-0-2-5-2-0-5-2-0-5-2-0---2-5-2---------------------------------|
A|-----------------------4---------------------------------------|
E|---------------------------------------------------------------|
Tap to rate this tab
 
# A B C D E F G H I J K L M N O P Q R S T U V W X Y Z