Song name
# A B C D E F G H I J K L M N O P Q R S T U V W X Y Z

Bill Withers - Lean On Me tab

Tabbed By: Hunter Shults
Email:Incubus211208@hotmail.com

Tuning:Normal/Standard

This Rendition is done on an on an acoustic and I have played it in front of a couple 
before and they all seem to enjoy it and sing along, so please if you have any comments or 
on the tab let me know


Intro & Verses

e|-0-0-0-0--0--0-0-0-0-0-0-0-0-0-0-0-0-0-0--0--0-0-0-0-0-0-0-0-----------|
B|-5-5-7-9-10-10-9-7-5-5-7-9-9-7-5-5-7-9-10-10-9-7-5-5-7-9-4-5-----------|
G|-----------------------------------------------------------------------|
D|-----------------------------------------------------------------------|
A|-----------------------------------------------------------------------|
E|-----------------------------------------------------------------------|


Chorus

e|---------------------------------------------------------------------------|
B|---------------------------------------------------------------------------|
G|1-1--1-3-5-6-6--6-5-3-1-1--1-3-5-5-3--1-1--1-3-5-6-6--6-5-3-1-1--1-3-5---1-|
D|2-2--2-4-6-7-7--7-6-4-2-2--2-4-6-6-4--2-2--2-4-6-7-7--7-6-4-2-2--2-4-6-5-2-|
A|2-2--2-4-6-7-7--7-6-4-2-2--2-4-6-6-4--2-2--2-4-6-7-7--7-6-4-2-2--2-4-6-6-2-|
E|-----------------------------------------------------------------------6---|

And thats It!
Tap to rate this tab
# A B C D E F G H I J K L M N O P Q R S T U V W X Y Z