Song name
# A B C D E F G H I J K L M N O P Q R S T U V W X Y Z

Bill Withers - Lean On Me tab

E|----------------------------------------------------|
B|--1----1--3--5--6----6--5--3--1----1--3--5--5----3--|
G|--0----0--2--4--5----5--4--2--0----0--2--4--4----2--|
D|--2----2--3--5--7----7--5--3--2----2--3--5--5----3--|
A|----------------------------------------------------|
E|----------------------------------------------------|

E|----------------------------------------------------|
B|--1----1--3--5--6----6--5--3--1----1--3--5--0----1--|
G|--0----0--2--4--5----5--4--2--0----0--2--4--2----0--|
D|--2----2--3--5--7----7--5--3--2----2--3--5--0----2--|
A|----------------------------------------------------|
E|----------------------------------------------------|

Just repeat this for the whole song
Tap to rate this tab
# A B C D E F G H I J K L M N O P Q R S T U V W X Y Z