Song name
# A B C D E F G H I J K L M N O P Q R S T U V W X Y Z

Bill Withers - Use Me chords

Highlighted       Show chord diagrams
Tabbed By: Jeffrey Attakorah

Acoustic Guitar: Just uses 2 chords,  Em7 and A7 just listen to the song

CHORD DIAGRAMS:
---------------
 Em7     A7

 EADGBE  EADGBE
 x7x78x  5x56xx

Lead Guitar: Plays the hook witht he piano sometimes but then plays lots of improve form 
Either the Em Pantatonic or the E Blues Scale

Piano Part (Sometimes Doubles With Guitar)- There is soo many Variations with the Lick 
so just "make it your own"

   Em7                       A7
E|--------------------------|----------------------------------|
B|--------------------------|----------------------------------|
G|--------------------------|----------------------------------|
D|-----5------5-------5-----|----------------------------------|
A|-5-7---7--5---7---5---7-5-|-4-7----0-2-4---------------------|
E|--------------------------|----------------------------------|

   Em7                       A7
E|--------------------------|----------------------------------|
B|--------------------------|----------------------------------|
G|--------------------------|----------------------------------|
D|-----5------5-------5-----|------------5---------------------|
A|-5-7---7--5---7---5---7-5-|-4-7----4-7---7-------------------|
E|--------------------------|----------------------------------|

Bass
  Em7                       A7
G|------------------------|----------------------------------|
D|----------5-----5-------|----------------------------------|
A|-7-7--5-7---5-7---5-7-5-|------0--2--3--4--5---------------|
E|------------------------|-5-5------------------------------|

 Em7                       A7
G|------------------------|----------------------------------|
D|----------5-----5-------|----------------------------------|
A|-7-7--5-7---5-7---5-7-5-|-----------5--5-6-7---------------|
E|------------------------|-5-5---5-7------------------------|
The lick during the "A7" varies tooo, this song is just a big jam session
Tap to rate this tab
 
# A B C D E F G H I J K L M N O P Q R S T U V W X Y Z