Guitaretab - guitar tabs
Song name
# A B C D E F G H I J K L M N O P Q R S T U V W X Y Z

Bill Withers - Check It All Out And Take It All In tab

----------------------------------------------------------------------------
     Check it all out and take it all in - Bill Withers / Joseph Malik
----------------------------------------------------------------------------
Tabbed by: Charl
Email: charl.van@xtra.co.nz
[ Tab from: http://www.guitaretab.com/b/bill-withers/84357.html ]
This track was written originally by Bill Withers, but this version is a cover by Joseph 
and is also on the soundtrack for A Broke Down Melody DVD by Jack Johnson etc.
Funky little track man, listen to the song for timing.

Tuning: standard

e|------------------------x-----x--x------------|
B|------------------------3-----3--3------------|
G|------------------------1-----1--1------------|     repeat over and over
D|--------0--3--0-----0---2-----2--2------------|
A|--0--3-----------3------x-----x--x------------|
E|------------------------x-----x--x------------|

Thatís it!! Enjoy.
Related for Check It All Out And Take It All In tab