Song name
# A B C D E F G H I J K L M N O P Q R S T U V W X Y Z

Bill Wyman - Boogie Woogie All Night Long tab

e|----------------------------------------------------------------------|
B|----------------------------------------------------------------------|
G|----------------------------------------------------------------------|
D|---5-7-5-7-5-7-5-7-5-7-5-7-5-7-5-7------------------5-7-5-7-5-7-5-7---|
A|---3-3-3-3-3-3-3-3-3-3-3-3-3-3-3-3-5-7-5-7-5-7-5-7--3-3-3-3-3-3-3-3---|
E|-----------------------------------3-3-3-3-3-3-3-3--------------------|

e|----------------------------------------|
B|----------------------------------------|
G|----------------------------------------|
D|----7-9-7-9---------5-7-5-7-5-7-5-7-----|
A|----5-5-5-5-5-7-5-7-3-3-3-3-3-3-3-3-----|
E|------------3-3-3-3---------------------|

Solo is in G Pentatonic and you can move up into C pentatonic as well.

Cheers.


Tap to rate this tab
# A B C D E F G H I J K L M N O P Q R S T U V W X Y Z