Song name
# A B C D E F G H I J K L M N O P Q R S T U V W X Y Z

Billie Myers - Kiss The Rain tab

-------------------------------------------------------------------------------
			     KISS THE RAIN - Billie Myers
-------------------------------------------------------------------------------
Tabbed by: metallhead
Email: homesticky@gmail.com

Tuning: E A D G B E


Gtr I (E A D G B E) - 'Lead Vocals'
Gtr II (E A D G B E) - 'Background'
Gtr III (E A D G B E) - 'Lead Guitar'
Gtr IV (E A D G B E) - 'Guitar'
Gtr V (E A D G B E) - 'Piano'
Gtr VI (E A D G B E) - 'Strings'

  Q=88
 4/4
  Gtr IV
  H.      E E   W             H    +S  S E E E   W
|-------------|-------------|------------------|-------------|
|-------------|-------------|------------------|-------------|
|-------------|-------------|------------------|-------------|
|-2-----------|-------------|-4----(4)---2---0-|-------------|
|-0-------4---|-2-----------|-4----(4)---------|-0-----------|
|-----------5-|-0-----------|--------------2---|-------------|
|
| Gtr VI
| W             H    +H       H    +H            H    +H
|-------------|-------------|------------------|-------------|
|-------------|-------------|------------------|-------------|
|-------------|-------------|------------------|-------------|
|-2-----------|-------------|------------------|-------------|
|-------------|-2----(2)----|-4----(4)---------|-5----(5)----|
|-------------|-------------|------------------|-5----(5)----|


  S E S  Q      H                 W
|-----------------------------|-----------------|
|---3-------------------------|-----------------|
|-1---------------------------|-----------------|
|-2---------------------------|-----------------|
|-0---------------------------|-----------------|
|-----------------------------|-----------------|
|
| Gtr V
| Q      E  E  +E   E  +E   E    +H      +H
|-------17--------------------|-----------------|
|----------17-(17)------------|-----------------|
|------------------18-(18)----|-----------------|
|--------------------------19-|-(19)----(19)----|
|-----------------------------|-----------------|
|-----------------------------|-----------------|
|
| Gtr VI
| H            +H                 H      +H
|-----------------------------|-----------------|
|-----------------------------|-----------------|
|-----------------------------|-----------------|
|-----------------------------|-----------------|
|-7------------(7)------------|-----------------|
|-----------------------------|---7------(7)----|


                             Gtr I
  W                            H       Q   E E
|--------------------------|--------------------|
|--------------------------|--------------------|
|--------------------------|---------------4-2--|
|--------------------------|--------------------|
|--------------------------|--------------------|
|--------------------------|--------------------|
|
| Q   E  E  +E   E  +E   E    +H      +H
|--------------------------|--------------------|
|----17--------------------|--------------------|
|-------18-(18)------------|--------------------|
|---------------19-(19)----|--------------------|
|-----------------------21-|-(21)----(21)-------|
|--------------------------|--------------------|
|
| H         +H                 H      +H
|--------------------------|--------------------|
|--------------------------|--------------------|
|--------------------------|--------------------|
|--------------------------|--------------------|
|--------------------------|---5------(5)-------|
|-9---------(9)------------|---5------(5)-------|


  W          Q  E S S  E  E Q    H     Q   E S S   E S S +S  S E +S  S E E E
|----------|-------------------|-----------------|----------------------------|
|----------|-----------2-------|-----------------|-2--------------------------|
|----------|------2-2-----4----|-------------2-2-|---2-2-(2)-2-4-(4)-----4-2--|
|----------|-------------------|-----------------|----------------------------|
|----------|-------------------|-----------------|----------------------------|
|----------|-------------------|-----------------|----------------------------|
|
| Gtr VI
| W          H        +H         H    +H           H             +H
|----------|-------------------|-----------------|----------------------------|
|----------|-------------------|-----------------|----------------------------|
|----------|-------------------|-----------------|----------------------------|
|----------|-------------------|-----------------|----------------------------|
|-7--------|-------------------|-----------------|-5-------------(5)----------|
|----------|-7--------(7)------|-9----(9)--------|-5-------------(5)----------|


  H    Q  E S S   E E Q   Q   E S S   E S S +S  S E +S  S E E S S
|---------------|-------------------|-----------------------------|
|---------------|-2-----------------|-2---------------------------|
|-----------2-2-|---4-----------2-2-|---2-2-(2)-2-2-(2)-------2-2-|
|---------------|-------------------|-----------------------------|
|---------------|-------------------|-----------------------------|
|---------------|-------------------|-----------------------------|
|
| W               H      +H           H             +H
|---------------|-------------------|-----------------------------|
|---------------|-------------------|-----------------------------|
|---------------|-------------------|-----------------------------|
|---------------|-------------------|-----------------------------|
|-7-------------|-------------------|-----------------------------|
|---------------|-7------(7)--------|-9-------------(9)-----------|


  E S S +S  S E +S  S E E E   H      E  E E E
|---------------------------|-----------------|
|-2---------------------2---|--------2------2-|
|---2-2-(2)-2-4-(4)-------4-|-----------4-----|
|---------------------------|-----------------|
|---------------------------|-----------------|
|---------------------------|-----------------|
|
| Gtr IV
| W                           Q  Q   Q    Q
|---------------------------|-----------------|
|---------------------------|-----------------|
|---------------------------|----4--------4---|
|---------------------------|----0--------0---|
|---------------------------|-----------------|
|---------------------------|-----------------|
|
| Gtr VI
| H             +H            H     +H
|---------------------------|-----------------|
|---------------------------|-----------------|
|---------------------------|-----------------|
|---------------------------|-----------------|
|-5-------------(5)---------|-7-----(7)-------|
|-5-------------(5)---------|-----------------|


  E E Q   E  E E E    Q  E E   E  E +S  S E
|------------------|------------------------|
|--------------2---|-------2--------------2-|
|-2-2------------4-|-----------4--2-(2)-----|
|------------2-----|------------------------|
|------------------|------------------------|
|------------------|------------------------|
|
| Q   Q   Q    Q      Q  Q     Q     Q
|------------------|------------------------|
|------------------|------------------------|
|-----4--------4---|-----4-----------4------|
|-----0--------0---|-----0-----------0------|
|------------------|------------------------|
|------------------|------------------------|
|
| H      +H           H       +H
|------------------|------------------------|
|------------------|------------------------|
|------------------|------------------------|
|------------------|------------------------|
|-9------(9)-------|-11------(11)-----------|
|------------------|------------------------|


  E E Q  E E E E   E E E E E E E E   E E E E E E E E   Q   E E  E  E E E
|----------------|-----------------|-----------5-7-5-|-------------------|
|------------2---|-----2-------2---|-----2-----------|-------5--5------7-|
|-2-2----------4-|-------4-------4-|-------4---------|-------------6-----|
|----------2-----|---2-------2-----|---2-------------|---------------7---|
|----------------|-----------------|-----------------|-------------------|
|----------------|-----------------|-----------------|-------------------|
|
| Gtr II
| W                W                 H       E E E E   W
|----------------|-----------------|-----------5-7-5-|-------------------|
|----------------|-----------------|-----------5-7-5-|-------------------|
|----------------|-----------------|-----------------|-------------------|
|----------------|-----------------|-----------------|-------------------|
|----------------|-----------------|-----------------|-------------------|
|----------------|-----------------|-----------------|-------------------|
|
| Gtr IV
| Q   Q  Q   Q     Q   Q   Q   Q     E E Q   Q   Q     E E E E +E  E E E
|----------------|-----------------|-----------------|-------------------|
|----------------|-----------------|-----------------|-----5-------------|
|-----4------4---|-----4-------4---|-4---4---4---4---|-------4-(4)---4-2-|
|-----0------0---|-----0-------0---|-----0---0---0---|-------------2-----|
|----------------|-----------------|---5-------------|---7---------------|
|----------------|-----------------|-----------------|-5-----------------|


  +E  E +E  E  E  E E E   Q   E E  E  E E E
|-----------------5-7-5-|-------------------|
|-(7)-5-(5)-------------|-------5--5--3-2---|
|-----------------------|-----------------4-|
|-----------------------|-------------------|
|-----------------------|-------------------|
|-----------------------|-------------------|
|
|  H           E  E E E   W
|-----------------5-7-5-|-------------------|
|-----------------5-7-5-|-------------------|
|-----------------------|-------------------|
|-----------------------|-------------------|
|-----------------------|-------------------|
|-----------------------|-------------------|
|
|  E  E  E  E +E  E E E   E E E E +E  E E E
|-----------------------|-------------------|
|--------5--------------|-----5-------------|
|-----------4-(4)---4-2-|-------4-(4)---4-2-|
|-----2-----------2-----|-0-2---------2-----|
|--4--------------------|-------------------|
|-----------------------|-------------------|


  +E  E E E  E  E E E   Q   E E  E  E E E
|---------------5-7-5-|-------------------|
|-------2-------------|-------5--5------7-|
|-(4)-2---4-----------|-------------6-----|
|---------------------|---------------7---|
|---------------------|-------------------|
|---------------------|-------------------|
|
|  H         E  E E E   W
|---------------5-7-5-|-------------------|
|---------------5-7-5-|-------------------|
|---------------------|-------------------|
|---------------------|-------------------|
|---------------------|-------------------|
|---------------------|-------------------|
|
|  E  E E E +E  E E E   E E E E +E  E E E
|---------------------|-------------------|
|-------5-------------|-----5-------------|
|---------4-(4)---4-2-|-------4-(4)---4-2-|
|-----2---------2-----|---2---------2-----|
|---------------------|-0-----------------|
|--0------------------|-------------------|


  +E  E +S  S E  E  E E E   Q   E E  E  E E E
|-------------------5-7-5-|-------------------|
|-(7)-5-(5)---------------|-------5--5--3-2---|
|-------------------------|-----------------4-|
|-------------------------|-------------------|
|-------------------------|-------------------|
|-------------------------|-------------------|
|
|  H             E  E E E   W
|-------------------5-7-5-|-------------------|
|-------------------5-7-5-|-------------------|
|-------------------------|-------------------|
|-------------------------|-------------------|
|-------------------------|-------------------|
|-------------------------|-------------------|
|
|  E  E  E    E +E  E E E   E E E E +E  E E E
|-------------------------|-------------------|
|--------5----------------|-----5-------------|
|-------------4-(4)---4-2-|-------4-(4)---4-2-|
|-----2-------------2-----|-0-2---------2-----|
|--4----------------------|-------------------|
|-------------------------|-------------------|


  +E  E Q    E  E E E   Q   E E  E  E E E
|---------------5-7-5-|--------------------|
|---------------------|-------5--5------7--|
|-(4)-----------------|-------------6------|
|---------------------|---------------7----|
|---------------------|--------------------|
|---------------------|--------------------|
|
|  H         E  E E E   W
|---------------5-7-5-|--------------------|
|---------------5-7-5-|--------------------|
|---------------------|--------------------|
|---------------------|--------------------|
|---------------------|--------------------|
|---------------------|--------------------|
|
|  E  E E E +E  E E E   E E E E +E  E E E
|---------------------|--------------------|
|-------5-------------|-----5--------------|
|---------4-(4)---4-2-|-------4-(4)---4-2--|
|-----2---------2-----|---2---------2------|
|---------------------|-0------------------|
|--0------------------|--------------------|


  +E  E +E  E  E  E E E   Q   E E  E  E E E
|-----------------5-7-5-|-------------------|
|-(7)-5-(5)-------------|-------5--5--3-2---|
|-----------------------|-----------------4-|
|-----------------------|-------------------|
|-----------------------|-------------------|
|-----------------------|-------------------|
|
|  H           E  E E E   W
|-----------------5-7-5-|-------------------|
|-----------------5-7-5-|-------------------|
|-----------------------|-------------------|
|-----------------------|-------------------|
|-----------------------|-------------------|
|-----------------------|-------------------|
|
|  E  E  E  E +E  E E E   E E E E +E  E E E
|-----------------------|-------------------|
|--------5--------------|-----5-------------|
|-----------4-(4)---4-2-|-------4-(4)---4-2-|
|-----2-----------2-----|-0-2---------2-----|
|--4--------------------|-------------------|
|-----------------------|-------------------|


  +E  E E E  E  E E E   Q   E E  E  E E E
|---------------5-5-5-|-------------------|
|---------2-----------|-------5--5------7-|
|-(4)-4-2----4--------|-------------6-----|
|---------------------|---------------7---|
|---------------------|-------------------|
|---------------------|-------------------|
|
|  H         E  E E E   W
|---------------5-7-5-|-------------------|
|---------------5-7-5-|-------------------|
|---------------------|-------------------|
|---------------------|-------------------|
|---------------------|-------------------|
|---------------------|-------------------|
|
|  E  E E E +E  E E E   E E E E +E  E E E
|---------------------|-------------------|
|-------5-------------|-----5-------------|
|---------4-(4)---4-2-|-------4-(4)---4-2-|
|-----2---------2-----|---2---------2-----|
|---------------------|-0-----------------|
|--2------0-(0)-------|-------------------|


  +E  E E E  E   E  E  E   H        E   E  E  E
|------------------------|----------------------|
|-(7)-9---------10-12-10-|-------------10-12-10-|
|-------9-9--------------|----------------------|
|------------------------|----------------------|
|------------------------|----------------------|
|------------------------|----------------------|
|
|  H         E   E  E  E   H        E   E  E  E
|----------------5--7--5-|--------------5--7--5-|
|----------------5--7--5-|--------------5--7--5-|
|------------------------|----------------------|
|------------------------|----------------------|
|------------------------|----------------------|
|------------------------|----------------------|
|
|  E  E E E +E   E  E  E   E E E E +E   E  E  E
|------------------------|----------------------|
|-------5----------------|-----5----------------|
|---------4-(4)-----4--2-|-------4-(4)-----4--2-|
|-----2----------2-------|-0-2----------2-------|
|--4---------------------|----------------------|
|------------------------|----------------------|


                         Gtr V
  H        E   E  E  E    Q     E  E  +E   E  +E   E
|----------------------|-----------------------------|
|-------------10-12-10-|-------22--------------------|
|----------------------|----------21-(21)------------|
|----------------------|------------------23-(23)----|
|----------------------|--------------------------24-|
|----------------------|-----------------------------|
|
|                        Gtr VI
| H        E   E  E  E    W
|--------------5--7--5-|-----------------------------|
|--------------5--7--5-|-----------------------------|
|----------------------|-----------------------------|
|----------------------|-----------------------------|
|----------------------|-----------------------------|
|----------------------|-12--------------------------|
|
| E E E E +E   E  E  E   +E  E  Q      H
|----------------------|-----------------------------|
|-----5----------------|-----------------------------|
|-------4-(4)-----4--2-|-(2)-------------------------|
|---2----------2-------|-----------------------------|
|----------------------|-----------------------------|
|-0--------------------|-----------------------------|


  Gtr I
    W               W
|-----------------|--------------------------|
|-----------------|--------------------------|
|-----------------|--------------------------|
|-----------------|--------------------------|
|-----------------|--------------------------|
|-----------------|--------------------------|
|
| Gtr V
|  +H      +H       Q   E  E  +E   E  +E   E
|-----------------|--------------------------|
|-----------------|--------------------------|
|-----------------|----21--------------------|
|-----------------|-------23-(23)------------|
|-(24)----(24)----|---------------24-(24)-21-|
|-----------------|--------------------------|
|
| Gtr VI
|   H      +H       H         +H
|-----------------|--------------------------|
|-----------------|--------------------------|
|-----------------|--------------------------|
|-----------------|--------------------------|
|---2------(2)----|-4---------(4)------------|
|-----------------|--------------------------|


    H       Q   E E   H    Q  E S S
|-------------------|----------------|
|-------------------|----------------|
|-------------------|----------------|
|---------------9-7-|-----------7-7--|
|-------------------|----------------|
|-------------------|----------------|
|
|  +H      +H         W
|-------------------|----------------|
|-------------------|----------------|
|-------------------|----------------|
|-------------------|----------------|
|-(21)----(21)------|----------------|
|-------------------|----------------|
|
|   H      +H         W
|-------------------|----------------|
|-------------------|----------------|
|-------------------|----------------|
|-------------------|----------------|
|---5------(5)------|-7--------------|
|---5------(5)------|----------------|


  E E Q   Q   E S S   E S S +S  S E +S  S E S S S S   E S S +S  E S +E  E E E
|-------------------|-------------------------------|--------------------------|
|-------------------|-2-----------------------------|-2------------------------|
|-6-4-------------2-|---2-2-(2)-2-2-(2)-------2-2-2-|---2-2-(2)-2-4-(4)---4-2--|
|-------------------|-------------------------------|--------------------------|
|-------------------|-------------------------------|--------------------------|
|-------------------|-------------------------------|--------------------------|
|
| Gtr VI
| H      +H           H             +H                H             +H
|-------------------|-------------------------------|--------------------------|
|-------------------|-------------------------------|--------------------------|
|-------------------|-------------------------------|--------------------------|
|-------------------|-------------------------------|--------------------------|
|-------------------|-------------------------------|-5-------------(5)--------|
|-7------(7)--------|-9-------------(9)-------------|-5-------------(5)--------|


  H       Q   E S S   E E Q    Q    E S S   E S S +S  S E  Q    E S S
|-------------------|---------------------|----------------------------|
|-------------------|-2-------------------|-2--------------------------|
|---------------2-2-|---4-------------2-2-|---2-2-(2)-2-2-----------2--|
|-------------------|---------------------|----------------------------|
|-------------------|---------------------|----------------------------|
|-------------------|---------------------|----------------------------|
|
| Gtr IV
| E E E E E E E E     E E E E  E  E E E     E E    E    E  E  E E E
|-------------------|---------------------|----------------------------|
|-----5-------5-----|-----5---------5-----|--------5------------5------|
|-------4-------4---|-------4---------4---|-------------4---------4----|
|---2-------2-------|---2---------2-------|---2---------------2--------|
|-------------------|---------------------|----------------------------|
|-------------------|---------------------|----------------------------|
|
| Gtr VI
| W                   H       +H            H             +H
|-------------------|---------------------|----------------------------|
|-------------------|---------------------|----------------------------|
|-------------------|---------------------|----------------------------|
|-------------------|---------------------|----------------------------|
|-7-----------------|---------------------|----------------------------|
|-------------------|-7-------(7)---------|-9-------------(9)----------|


  E E E S S  E  S S +S  E   S   +S  S E E E  E  E E E
|-----------------------------|-----------------------|
|-2----------2----------2-----|-----------2---------2-|
|---4-2-2-2-----2-2-(2)-----4-|-(4)----------4--2-4---|
|-----------------------------|-----------------------|
|-----------------------------|-----------------------|
|-----------------------------|-----------------------|
|
| E E E E    E  E    E    E      Q      Q    Q    Q
|-----------------------------|-----------------------|
|-----5--------------5--------|-----------------------|
|-------4-----------------4---|---------4---------4---|
|---2-----------2-------------|---------0---------0---|
|-----------------------------|-----------------------|
|-----------------------------|-----------------------|
|
| H         +H                   H          +H
|-----------------------------|-----------------------|
|-----------------------------|-----------------------|
|-----------------------------|-----------------------|
|-----------------------------|-----------------------|
|-5---------(5)---------------|--7----------(7)-------|
|-5---------(5)---------------|-----------------------|


  E E Q   E  E E E    Q  E E   E  E E E
|------------------|---------------------|
|--------------2---|-------2--------3-2--|
|-2-2------------4-|-----------4--2------|
|------------2-----|---------------------|
|------------------|---------------------|
|------------------|---------------------|
|
| Q   Q   Q    Q      Q  Q     Q    Q
|------------------|---------------------|
|------------------|---------------------|
|-----4--------4---|-----4----------4----|
|-----0--------0---|-----0----------0----|
|------------------|---------------------|
|------------------|---------------------|
|
| H      +H           H       +H
|------------------|---------------------|
|------------------|---------------------|
|------------------|---------------------|
|------------------|---------------------|
|-9------(9)-------|-11------(11)--------|
|------------------|---------------------|


   E E Q    E  E E E    E E E E   E  E E E
|--------------------|---------------------|
|----------------2---|------2----------2---|
|--2-2-------------4-|--------4----------4-|
|--------------2-----|----2----------2-----|
|--------------------|---------------------|
|--------------------|---------------------|
|
|  Q   Q    Q    Q      Q   Q     Q    Q
|--------------------|---------------------|
|--------------------|---------------------|
|------4---------4---|------4----------4---|
|------0---------0---|------0----------0---|
|--------------------|---------------------|
|--------------------|---------------------|
|
|  H       +H           H        +H
|--------------------|---------------------|
|--------------------|---------------------|
|--------------------|---------------------|
|--------------------|---------------------|
|-12------(12)-------|-11-------(11)-------|
|--------------------|-12-------(12)-------|


       Gtrs I, II       Gtr III
   E E E E   E  E E E    Q   E E +S  E. Q
|---------------5-7-5-|--------------------|
|------2--------------|--------------------|
|--------4------------|--------2-(2)-4--2--|
|----2----------------|--------------------|
|---------------------|--------------------|
|---------------------|--------------------|
|
|  E E Q     Q    Q      E E Q   +H
|---------------------|--------------------|
|---------------------|--------------------|
|--4---4-----4----4---|--------------------|
|------0-----0----0---|--------------------|
|----5----------------|--4-5-7---(7)-------|
|---------------------|--------------------|
|
|  H        +H           W
|---------------------|--------------------|
|---------------------|--------------------|
|---------------------|--------------------|
|---------------------|--------------------|
|-12-------(12)-------|--------------------|
|-10-------(10)-------|-12-----------------|


  Q     E E  +S  E. Q    Q     E E  +S  E. E S S
|----------------------|-------------------------|
|----------------------|---------------------2-2-|
|---------2--(2)-4--2--|---------2--(2)-4--2-----|
|----------------------|-------------------------|
|----------------------|-------------------------|
|----------------------|-------------------------|
|
| E  E  Q    +H          E  E  Q    +H
|----------------------|-------------------------|
|----------------------|-------------------------|
|----------------------|-------------------------|
|----------------------|-------------------------|
|----------------------|-------------------------|
|-9-10-12---(12)-------|-9-10-12---(12)----------|
|
| H          +H          H          +H
|----------------------|-------------------------|
|----------------------|-------------------------|
|----------------------|-------------------------|
|----------------------|-------------------------|
|-2----------(2)-------|-4----------(4)----------|
|----------------------|-------------------------|


   S S S S +S  S S S  S  S S S +Q
|-------------------------------------|
|--2----------------------------------|
|----2-2-2-(2)-2-2-4--4--2-2-2-(2)----|
|-------------------------------------|
|-------------------------------------|
|-------------------------------------|
|
|  H                  Q         E   E
|-------------------------------------|
|-------------------------------------|
|-------------------------------------|
|-------------------------------------|
|-------------------------------------|
|-12-----------------12--------12--12-|
|
|  H                 +H
|-------------------------------------|
|-------------------------------------|
|-------------------------------------|
|-------------------------------------|
|--5-----------------(5)--------------|
|--5-----------------(5)--------------|


  Gtr I
  W                      H           E     E E E
|----------------------|-------------------5-7-5---|
|----------------------|---------------------------|
|----------------------|---------------------------|
|----------------------|---------------------------|
|----------------------|---------------------------|
|----------------------|---------------------------|
|
| Gtr III
| Q     E E  +S  E. Q    Q     E E  +S  E.   E S S
|----------------------|---------------------------|
|----------------------|-----------------------2-2-|
|---------2--(2)-4--2--|---------2--(2)-4----2-----|
|----------------------|---------------------------|
|----------------------|---------------------------|
|----------------------|---------------------------|
|
| Gtr IV
| E  E  Q    +H          E  E  Q    +H
|----------------------|---------------------------|
|----------------------|---------------------------|
|----------------------|---------------------------|
|----------------------|---------------------------|
|----------------------|---------------------------|
|-9-10-12---(12)-------|-9-10-12---(12)------------|


   E   E    E    E    E   E    E   E
|------5----7----5--------5----7---5---|
|--------------------------------------|
|--------------------------------------|
|--------------------------------------|
|--------------------------------------|
|--------------------------------------|
|
|  S S S S +S  S S S  S S S S +E   S S
|--------------------------------------|
|--2-----------------------------------|
|----2-2-2-(2)-2-2-4--4-2-2-2-(2)--4-4-|
|--------------------------------------|
|--------------------------------------|
|--------------------------------------|
|
|  H                  Q        E   E
|--------------------------------------|
|--------------------------------------|
|--------------------------------------|
|--------------------------------------|
|--------------------------------------|
|-12-----------------12-------12--12---|


  E   E    E    E   E   E    E    E
|-----5----7----5-------5----7----5---|
|-------------------------------------|
|-------------------------------------|
|-------------------------------------|
|-------------------------------------|
|-------------------------------------|
|
| Gtr II
| W
|-------------------------------------|
|-------------------------------------|
|-------------------------------------|
|-------------------------------------|
|-------------------------------------|
|-------------------------------------|
|
| Gtr III
| S S S S +S  S S S S S S S +S  S S S
|-------------------------------------|
|-------------------------------------|
|-4-2-2-2-(2)-4-4-4-4-2-2-2-(2)---2-4-|
|-------------------------------------|
|-------------------------------------|
|-------------------------------------|


  E   E E   E   E E    E    E     +S  S E +E  E E E E E
|-----5-7---5-----9----9----9---|-(9)-7-5-(5)-----------|
|-------------------------------|-------------5-5-----7-|
|-------------------------------|-----------------6-----|
|-------------------------------|-------------------7---|
|-------------------------------|-----------------------|
|-------------------------------|-----------------------|
|
| H             E E    E    E      W
|-----------------5----7----5---|-----------------------|
|-----------------5----7----5---|-----------------------|
|-------------------------------|-----------------------|
|-------------------------------|-----------------------|
|-------------------------------|-----------------------|
|-------------------------------|-----------------------|
|
| S S E S E   S E S S +S  S S S    W
|-------------------------------|-----------------------|
|-------------------------------|-----------------------|
|-4-2-2-4-2---4-2-4-2-(2)-4-2-2-|-----------------------|
|-------------------------------|-----------------------|
|-------------------------------|-----------------------|
|-------------------------------|-----------------------|


  +E  E +E  E  E  E E E   Q   E E  E  E E E
|-----------------5-7-5-|-------------------|
|-(7)-5-(5)-------------|-------5--5--3-2---|
|-----------------------|-----------------4-|
|-----------------------|-------------------|
|-----------------------|-------------------|
|-----------------------|-------------------|
|
|  H           E  E E E   W
|-----------------5-7-5-|-------------------|
|-----------------5-7-5-|-------------------|
|-----------------------|-------------------|
|-----------------------|-------------------|
|-----------------------|-------------------|
|-----------------------|-------------------|
|
| Gtr IV
|  E  E  E  E +E  E E E   E E E E +E  E E E
|-----------------------|-------------------|
|--------5--------------|-----5-------------|
|-----------4-(4)---4-2-|-------4-(4)---4-2-|
|-----------------2-----|-0-2---------2-----|
|-----7-----------------|-------------------|
|--9--------------------|-------------------|


  +E  E E E  E  E E E   Q   E E  E  E E E
|---------------5-7-5-|-------------------|
|---------------------|-------5--5------7-|
|-(4)-4-2-4-----------|-------------6-----|
|---------------------|---------------7---|
|---------------------|-------------------|
|---------------------|-------------------|
|
|  H         E  E E E   W
|---------------5-7-5-|-------------------|
|---------------5-7-5-|-------------------|
|---------------------|-------------------|
|---------------------|-------------------|
|---------------------|-------------------|
|---------------------|-------------------|
|
|  E  E E E +E  E E E   E E E E +E  E E E
|---------------------|-------------------|
|-------5-------------|-----5-------------|
|---------4-(4)---4-2-|-------4-(4)---4-2-|
|-----2---------2-----|---2---------2-----|
|---------------------|-0-----------------|
|--0------------------|-------------------|


  E E +E  E  E  E E E   Q   E E  E  E E E
|---------------5-7-5-|-------------------|
|-7-5-(5)-------------|-------5--5--3-2---|
|---------------------|-----------------4-|
|---------------------|-------------------|
|---------------------|-------------------|
|---------------------|-------------------|
|
| H          E  E E E   W
|---------------5-7-5-|-------------------|
|---------------5-7-5-|-------------------|
|---------------------|-------------------|
|---------------------|-------------------|
|---------------------|-------------------|
|---------------------|-------------------|
|
| E E  E  E +E  E E E   E E E E +E  E E E
|---------------------|-------------------|
|------5--------------|-----5-------------|
|---------4-(4)---4-2-|-------4-(4)---4-2-|
|---2-----------2-----|-0-2---------2-----|
|-4-------------------|-------------------|
|---------------------|-------------------|


  +E  E E E  E  E E E   Q   E E  E  E E E
|---------------------|-------------------|
|-------2-------5-7-5-|-------5--5------7-|
|-(4)-2---4-----------|-------------6-----|
|---------------------|---------------7---|
|---------------------|-------------------|
|---------------------|-------------------|
|
|  H         E  E E E   W
|---------------5-7-5-|-------------------|
|---------------5-7-5-|-------------------|
|---------------------|-------------------|
|---------------------|-------------------|
|---------------------|-------------------|
|---------------------|-------------------|
|
|  E  E E E +E  E E E   E E E E +E  E E E
|---------------------|-------------------|
|-------5-------------|-----5-------------|
|---------4-(4)---4-2-|-------4-(4)---4-2-|
|-----2---------2-----|---2---------2-----|
|---------------------|-0-----------------|
|--0------------------|-------------------|


  +E  E +E  E  E  E E E   Q   E E  E  E E E
|-----------------5-7-5-|-------------------|
|-(7)-5-(5)-------------|-------5--5--3-2---|
|-----------------------|-----------------4-|
|-----------------------|-------------------|
|-----------------------|-------------------|
|-----------------------|-------------------|
|
|  H           E  E E E   W
|-----------------5-7-5-|-------------------|
|-----------------5-7-5-|-------------------|
|-----------------------|-------------------|
|-----------------------|-------------------|
|-----------------------|-------------------|
|-----------------------|-------------------|
|
|  E  E  E  E +E  E E E   E E E E +E  E E E
|-----------------------|-------------------|
|--------5--------------|-----5-------------|
|-----------4-(4)---4-2-|-------4-(4)---4-2-|
|-----2-----------2-----|-0-2---------2-----|
|--4--------------------|-------------------|
|-----------------------|-------------------|


  +E  E E E  E  E E E   Q   E E  E  E E E
|---------------5-5-5-|-------------------|
|---------2-----------|-------5--5------7-|
|-(4)-4-2----4--------|-------------6-----|
|---------------------|---------------7---|
|---------------------|-------------------|
|---------------------|-------------------|
|
|  H         E  E E E   W
|---------------5-7-5-|-------------------|
|---------------5-7-5-|-------------------|
|---------------------|-------------------|
|---------------------|-------------------|
|---------------------|-------------------|
|---------------------|-------------------|
|
|  E  E E E +E  E E E   E E E E +E  E E E
|---------------------|-------------------|
|-------5-------------|-----5-------------|
|---------4-(4)---4-2-|-------4-(4)---4-2-|
|-----2---------2-----|---2---------2-----|
|---------------------|-0-----------------|
|--2------0-(0)-------|-------------------|


  +E  E E E  E   E  E  E   H        E   E  E  E
|------------------------|----------------------|
|-(7)-9---------10-12-10-|-------------10-12-10-|
|-------9-9--------------|----------------------|
|------------------------|----------------------|
|------------------------|----------------------|
|------------------------|----------------------|
|
|  H         E   E  E  E   H        E   E  E  E
|----------------5--7--5-|--------------5--7--5-|
|----------------5--7--5-|--------------5--7--5-|
|------------------------|----------------------|
|------------------------|----------------------|
|------------------------|----------------------|
|------------------------|----------------------|
|
|  E  E E E +E   E  E  E   E E E E +E   E  E  E
|------------------------|----------------------|
|-------5----------------|-----5----------------|
|---------4-(4)-----4--2-|-------4-(4)-----4--2-|
|-----2----------2-------|-0-2----------2-------|
|--4---------------------|----------------------|
|------------------------|----------------------|


  H        E  E E E   +E  S S +Q    +H
|-------------9-9-9-|-(9)-7-5-(5)---(5)--------|
|-------------------|--------------------------|
|-------------------|--------------------------|
|-------------------|--------------------------|
|-------------------|--------------------------|
|-------------------|--------------------------|
|
|                     Gtr III
| H        E  E E E    Q       E  E +S  E. Q
|-------------5-7-5-|--------------------------|
|-------------5-7-5-|--------------------------|
|-------------------|-------------2-(2)-4--2---|
|-------------------|--------------------------|
|-------------------|--------------------------|
|-------------------|--------------------------|
|
| E E E E +E  E E E    E  E    Q    +H
|-------------------|--------------------------|
|-----5-------------|--------------------------|
|-------4-(4)---4-2-|--------------------------|
|---2---------2-----|--------------------------|
|-------------------|--4--5----7----(7)--------|
|-0-----------------|--------------------------|


  W                  H      +H
|-4----------------|-5------(5)--------|
|------------------|-------------------|
|------------------|-------------------|
|------------------|-------------------|
|------------------|-------------------|
|------------------|-------------------|
|
| Gtr II
| W                  W
|------------------|-------------------|
|------------------|-------------------|
|------------------|-------------------|
|------------------|-------------------|
|------------------|-------------------|
|------------------|-------------------|
|
| Gtr III
| Q  E E +S  E. Q    Q  E E +S  E. E E
|------------------|-------------------|
|------------------|-----------------2-|
|------2-(2)-4--2--|------2-(2)-4--2---|
|------------------|-------------------|
|------------------|-------------------|
|------------------|-------------------|


  E    S  S  +E   E    +E     E    Q       W
|-9-------------------------------------|--------------------|
|-----10-12-(12)-10---(10)---12---------|-14-----------------|
|---------------------------------------|--------------------|
|---------------------------------------|--------------------|
|---------------------------------------|--------------------|
|---------------------------------------|--------------------|
|
| H                     E     E    E  E    W
|-----------------------------5----7--5-|--------------------|
|-----------------------------5----7--5-|--------------------|
|---------------------------------------|--------------------|
|---------------------------------------|--------------------|
|---------------------------------------|--------------------|
|---------------------------------------|--------------------|
|
| S S  S  S  +E   S S   S  S  S S +Q       Q  E E +S  E. Q
|---------------------------------------|--------------------|
|-2-------------------------------------|--------------------|
|---2--2--2--(2)--2-4---4--2--2-2-(2)---|-------2-(2)-4--2---|
|---------------------------------------|--------------------|
|---------------------------------------|--------------------|
|---------------------------------------|--------------------|


   W                       H          +H
|-----------------------|--------------------------|
|-12--------------------|-10---------(10)----------|
|-----------------------|--------------------------|
|-----------------------|--------------------------|
|-----------------------|--------------------------|
|-----------------------|--------------------------|
|
| Gtr III
|  Q     E E  +S  E. Q     Q     E E  +S  E. E S S
|-----------------------|--------------------------|
|-----------------------|----------------------3-3-|
|----------2--(2)-4--2--|----------2--(2)-4--2-----|
|-----------------------|--------------------------|
|-----------------------|--------------------------|
|-----------------------|--------------------------|
|
| Gtr IV
|  E  E  Q    +H           E  E  Q    +H
|-----------------------|--------------------------|
|-----------------------|--------------------------|
|-----------------------|--------------------------|
|-----------------------|--------------------------|
|-----------------------|--------------------------|
|--9-10-12---(12)-------|--9-10-12---(12)----------|


  Gtr II
   H                  E   E    E     E
|-------------------------5----7-----5---|
|-------------------------5----7-----5---|
|----------------------------------------|
|----------------------------------------|
|----------------------------------------|
|----------------------------------------|
|
|  S S S S +S  S S S  S S S S +S  S  S S
|----------------------------------------|
|--3-2-2-2-(2)-2-2-----------------------|
|------------------4--4-2-2-2-(2)-2--4-2-|
|----------------------------------------|
|----------------------------------------|
|----------------------------------------|
|
|  H                  Q        E     E
|----------------------------------------|
|----------------------------------------|
|----------------------------------------|
|----------------------------------------|
|----------------------------------------|
|-12-----------------12-------12----12---|


  Gtr I
  W                      H          +Q.      E   +H           +H
|-9--------------------|-7----------(7)------5-|-(5)----------(5)-----------|
|----------------------|-----------------------|----------------------------|
|----------------------|-----------------------|----------------------------|
|----------------------|-----------------------|----------------------------|
|----------------------|-----------------------|----------------------------|
|----------------------|-----------------------|----------------------------|
|
| Q     E E  +S  E. Q    Q     E E  +S  E. Q      Q      E E  +S  E. E S S
|----------------------|-----------------------|----------------------------|
|----------------------|-----------------------|-----------------------2-2--|
|---------2--(2)-4--2--|---------2--(2)-4--2---|-----------2--(2)-4--2------|
|----------------------|-----------------------|----------------------------|
|----------------------|-----------------------|----------------------------|
|----------------------|-----------------------|----------------------------|
|
| E  E  Q    +H          E  E  Q    +H            E   E  Q    +H
|----------------------|-----------------------|----------------------------|
|----------------------|-----------------------|----------------------------|
|----------------------|-----------------------|----------------------------|
|----------------------|-----------------------|----------------------------|
|----------------------|-----------------------|----------------------------|
|-9-10-12---(12)-------|-9-10-12---(12)--------|--9--10-12---(12)-----------|


  Gtr II                              Gtr I
   H                  E   E    E  E    H    Q  E E   W
|-------------------------5----7--5-|--------------|------|
|-------------------------5----7--5-|--------------|------|
|-----------------------------------|----------4-2-|------|
|-----------------------------------|--------------|------|
|-----------------------------------|--------------|------|
|-----------------------------------|--------------|------|
|
|  S S S S +S  S S S  S S S S +Q       W             W
|-----------------------------------|--------------|------|
|--2--------------------------------|--------------|------|
|----2-2-2-(2)-2-2-4--4-2-2-2-(2)---|--------------|------|
|-----------------------------------|--------------|------|
|-----------------------------------|--------------|------|
|-----------------------------------|--------------|------|
|
|  H                  Q        Q       W             W
|-----------------------------------|--------------|------|
|-----------------------------------|--------------|------|
|-----------------------------------|--------------|------|
|-----------------------------------|--------------|------|
|-----------------------------------|--------------|------|
|-12-----------------12-------12----|-12-----------|------|


  Q  E S S  E  E Q    H     Q   E S S   E E Q   H
|-------------------|-----------------|---------------*|
|-----------2-------|-----------------|-2-------------*|
|------2-2-----4----|-------------2-2-|---4-----------*|
|-------------------|-----------------|---------------*|
|-------------------|-----------------|---------------*|
|-------------------|-----------------|---------------*|
|
| Gtr VI
| H        +H         H    +H           H      +H
|-------------------|-----------------|---------------*|
|-------------------|-----------------|---------------*|
|-------------------|-----------------|---------------*|
|-------------------|-----------------|---------------*|
|-------------------|-5----(5)--------|-4------(4)----*|
|-9--------(9)------|-5----(5)--------|-0------(0)----*|


Duration Legend
---------------
W - whole; H - half; Q - quarter; E - 8th; S - 16th; T - 32nd; X - 64th; a - acciaccatura
+ - note tied to previous; . - note dotted; .. - note double dotted
Uncapitalized letters represent notes that are staccato (1/2 duration)
Irregular groupings are notated above the duration line
Duration letters will always appear directly above the note/fret number it represents the
duration for.  Duration letters with no fret number below them represent rests.  Multi-
bar rests are notated in the form Wxn, where n is the number of bars to rest for.  Low
melody durations appear below the staff

Tablature Legend
----------------
 h   - hammer-on
 p   - pull-off
 b   - bend
 pb  - pre-bend
 r   - bend release (if no number after the r, then release immediately)
 /\  - slide into or out of (from/to "nowhere")
 s   - legato slide
 S   - shift slide
  - natural harmonic
[n]  - artificial harmonic
n(n) - tapped harmonic
 ~   - vibrato
 tr  - trill
 T   - tap
 TP  - trem. picking
 PM  - palm muting
\n/  - tremolo bar dip; n = amount to dip
 \n  - tremolo bar down
 n/  - tremolo bar up
/n\  - tremolo bar inverted dip
 =   - hold bend; also acts as connecting device for hammers/pulls
 <>  - volume swell (louder/softer)
 x   - on rhythm slash represents muted slash
 o   - on rhythm slash represents single note slash

Misc Legend
-----------
 |  - bar
||  - double bar
||o - repeat start
o|| - repeat end
*|  - double bar (ending)
 :  - bar (freetime)
 $  - Segno
 &  - Coda
Tempo markers -  = BPM(8/16=s8/s16), where s8 = swing 8ths, s16 = swing 16ths
Tap to rate this tab
# A B C D E F G H I J K L M N O P Q R S T U V W X Y Z