Song name
# A B C D E F G H I J K L M N O P Q R S T U V W X Y Z

Billie The Vision And The Dancers - A Man From Argentina chords

Highlighted       Show chord diagrams
This tab was taken directly from http://www.billiethevision.es, all the credit goes 
directly to the band itself.

A MAN FROM ARGENTINA
Words: L.Lindquist
Music: J.Duns÷/L.Lindquist
h = Hammer on
Capo on the 5th fret!
||------------------------|-----------0-------------|
||-8-----------7----------|-3---------------3-------|
||-----0-----0-----0-----0|-----0-----------------0-|
||------------------------|-------------------------|
||-7-----7-----5-----5----|-2-----2-----3-----3-----|
||------------------------|-------------------------|

||------------------------|-0----------------------|
||-------------------3----|-----3-----3------------|
||-2-----------4---------0|-----------------0------|
||-----0-----0-----0------|------------------------|
||-------------------2----|-3-----3-----3-----3----|
||-2-----2-----3----------|------------------------|

||------------------------|-----------0-------------|
||-----8-------7---5------|-3---------------3-------|
||-----------0-----------0|-----0-----------------0-|
||------------------------|-------------------------|
||-7-----7-----5-----5----|-2-----2-----3-----3-----|
||------------------------|-------------------------|

||------------------------|-------------------------|
||------------------------|-----------1-----0-------|
||-2-----------4-----2----|-----0-----------------0-|
||-----0-----0-----0-----0|-0-h2--------------------|
||-------------------2----|-3-----3-----3-----3-----|
||-2-----2-----3----------|-------------------------|
Intro: Em D G/B Cadd9 | D/F# G G/B Cadd9
Em D G/B Cadd9 D/F# G G/B Cadd9
Jackson Five from a car stereo singing "I want you back, want you back".
Em D G/B Cadd9
Just a year ago I would have danced so crazy
D/F# G G/B Cadd9
and now I think I wanna get back on that track.
Em D G/B Cadd9 D/F# G G/B Cadd9
If I only could relax in this confusion, if I could dance with you the way we used to.
Em D G/B Cadd9 D/F# G G/B Cadd9
Shake my hips to the revolution, if I could be naive again.
Em D G/B Cadd9
D/F# G G/B Cadd9
Em D G/B Cadd9 D/F# G G/B Cadd9
Catherine says, "Mono's coming on Friday and I must be the happiest girl in the world".
Em D G/B Cadd9 D/F# G G/B Cadd9
I'm thinking I wanna be you I wanna be you I wanna be you, you, you.
Em D G/B Cadd9 D/F# G G/B Cadd9
So send me a man from Argentina, to make me the happiest girl in the world.
Em D G/B Cadd9 D/F# G G/B Cadd9
So come to me on Friday, or Saturday, or Sunday, but I can't wait 'til Monday.
Em D G/B Cadd9 D/F# G G/B Cadd9
Come to me on Friday, or Saturday, or Sunday, but I can't wait 'til Monday.
Em D G/B Cadd9
D/F# G G/B Cadd9
Em D G/B Cadd9 D/F# G G/B Cadd9
Michael Walden from a car stereo singing "gimme, gimme, gimme all night long".
Em D G/B Cadd9 D/F# G G/B Cadd9
If I only could perform I would have sung along cause you know thatÝs a top five song.
Em D G/B Cadd9 D/F# G G/B Cadd9
Maggie and Josephine says good things to me and good things have tended to come late.
Em D G/B Cadd9 D/F# G G/B Cadd9
So I hold my breath there's a smile on my face and my face wasn't made to wait.
Em D G/B Cadd9 D/F# G G/B Cadd9
Catherine says, "Mono's coming on Friday and I must be the happiest girl in the world".
Em D G/B Cadd9 D/F# G G/B Cadd9
I'm thinking I wanna be you I wanna be you I wanna be you, you, you.
Em D G/B Cadd9 D/F# G G/B Cadd9
So send me a man from Argentina, to make me the happiest girl in the world.
Em D G/B Cadd9 D/F# G G/B Cadd9
So come to me on Friday, or Saturday, or Sunday, but I can't wait 'til Monday.
Em D G/B Cadd9 D/F# G G/B Cadd9
Come to me on Friday, or Saturday, or Sunday, but I canÝt wait 'til Monday.
Tap to rate this tab
# A B C D E F G H I J K L M N O P Q R S T U V W X Y Z