Song name
# A B C D E F G H I J K L M N O P Q R S T U V W X Y Z

Billie The Vision And The Dancers - A Man From Argentina tab

I wanted to learn this song, but all the tabs that currently existed had incorrect notes 
and/or were just incredibly hard to play. This is a much easier way of playing the 
song, and it sounds better with a more open feel too it.

Standard Tuning.
Capo on 5th fret.

|-3-------2-------------0---------|-----------------0---------------|
|-----------------3---------3-----|---------0---3-----3---3---------|
|---0---0---0---0---0-----------0-|-2---------0---0-----------0---0-|
|-2---2---0---0-------------------|---0---0-------------------------|
|-----------------2---2---3---3---|-------------2---3---3---3---3---|
|---------------------------------|-2---2---3-----------------------|


|---3-----2-0-----------0---------|---------------------------------|
|-----------------3---------3-----|---------0-------------1---0-----|
|-------0-------0---0-----------0-|-2-----------2------0----------0-|
|-2---2---0---0-------------------|---0---0---0-----0h2-------------|
|-----------------2---2---3---3---|-------------2-3-----3---3---3---|
|---------------------------------|-2---2---3-----------------------|


These are the two variations that he plays through the whole song.

Tabbed by Albin Ljunghusen 2012
Tap to rate this tab
 
# A B C D E F G H I J K L M N O P Q R S T U V W X Y Z