Song name
# A B C D E F G H I J K L M N O P Q R S T U V W X Y Z

Billlie - Honey To The B tab

Help us improve GuitareTab! Take a short survey!
Billie 
Honey to the B

ULTRA POP SONG!!!
Once again I don't particularly like Billie (but she does look scrumptious...) But I decided to tab it coz no-one else has and its easy to play.

Main Riff thats played nearly all the way through:

Eb			G#
---------------------------------------
---------8-------8---------------------
----------------------------5------5---
-----8--------8------------------------
--6---------6------------6--------6----
----------------------4--------4-------

~~~~~~~
Bridge
~~~~~~~
(listen to song for appropriate picking/timing etc)
(you can also just repeatedley hit the bass note)

----------------------------------------
----------------------------------------
--5---------------5---------------------
--8---------------6---------------------
--8---------------6---------------------
--6-6-6-6-6-6-6-5-4-4-4-4-4-4-4~5-6...(repeat for however long)


Thats pretty much it. My MP3 came out bad so there could be a bit after 
4:57 (when my MP3 kicked out) that I dont know about but this should
get you somewhere.

Honey to yo mamma and other white-kid r+b stuff,

~Ned
Related for Honey To The B tab