Song name
# A B C D E F G H I J K L M N O P Q R S T U V W X Y Z

Billy Boy On Poison - On My Way tab

-------------------------------------------------------------------------------
			     ON MY WAY - Billy Boy On Poison
-------------------------------------------------------------------------------
Tabbed by: ironmanben
Email: bentrooper@gmail.com

Tuning: e B G D A E

guitar 1 - Greg West - rhythm
guitar 2 - Ryan Wallengren - lead
guitar 3 - Ryan Wallengren - guitar solo
guitar 4 - Ryan Wallengren - slide guitar solo


verse 1:
(guitar 1:)
e|-----------------------------------------------|
B|-2-2-----2-------------------------------------|
G|-2-2-----2-------------------------------------|
D|-2-2-----2-----x---x-x---x-x---x-x---x-x---x-x-|
A|-0-0-----0-----x---x-x---x-x---x-x---x-x---x-x-|
E|-------3-------x---x-x---x-x---x-x---x-x---x-x-|
-| (guitar 2:)                                   |
e|-----------------------------------------------|
B|-2-2-----2-------------------------------------|
G|-2-2-----2-------------------------------------|
D|-2-2-----2-----x---x-x---x-x---x-x---x-x---x-x-|
A|-0-0-----0-----x---x-x---x-x---x-x---x-x---x-x-|
E|-------3-------x---x-x---x-x---x-x---x-x---x-x-|


e|-----------------------------------------------|
B|-2-2-----2-------------------------------------|
G|-2-2-----2-------------------------------------|
D|-2-2-----2-----x---x-x---x-x---x-x---x-x---x-x-|
A|-0-0-----0-----x---x-x---x-x---x-x---x-x---x-x-|
E|-------3-------x---x-x---x-x---x-x---x-x---x-x-|
-|                                               |
e|-----------------------------------------------|
B|-2-2-----2-------------------------------------|
G|-2-2-----2-------------------------------------|
D|-2-2-----2-----x---x-x---x-x---x-x---x-x---x-x-|
A|-0-0-----0-----x---x-x---x-x---x-x---x-x---x-x-|
E|-------3-------x---x-x---x-x---x-x---x-x---x-x-|


e|-----------------------------------------------|
B|-2-2-----2-------------------------------------|
G|-2-2-----2-------------------------------------|
D|-2-2-----2-----x---x-x---x-x---x-x---x-x---x-x-|
A|-0-0-----0-----x---x-x---x-x---x-x---x-x---x-x-|
E|-------3-------x---x-x---x-x---x-x---x-x---x-x-|
-|                                               |
e|-----------------------------------------------|
B|-----------------------------------------------|
G|---------------7^(9)---7-5-----------------5---|
D|---------------------------7-5-7-----7---------|
A|-----------------------------------------------|
E|-----------------------------------------------|


e|-----------------------------------------------|
B|-2-2-----2-------------------------------------|
G|-2-2-----2-------------------------------------|
D|-2-2-----2-----x---x-x---x-x---x-x---x-x---x-x-|
A|-0-0-----0-----x---x-x---x-x---x-x---x-x---x-x-|
E|-------3-------x---x-x---x-x---x-x---x-x---x-x-|
-|                                               |
e|-----------------------------------------------|
B|-----------------------------------------------|
G|-7^(9)---------7^(9)---7-5---5-----------------|
D|---------------------------7---7~--------------|
A|-----------------------------------------------|
E|-----------------------------------------------|


e|-----------------------------------------------|
B|-2-2-----2-------------------------------------|
G|-2-2-----2-------------------------------------|
D|-2-2-----2-----x---x-x---x-x---x-x---x-x---x-x-|
A|-0-0-----0-----x---x-x---x-x---x-x---x-x---x-x-|
E|-------3-------x---x-x---x-x---x-x---x-x---x-x-|
-|                                               |
e|-----------------------------------------------|
B|-----------------------------------------------|
G|---------------7^(9)---7-5-----------------5---|
D|---------------------------7-5-7-----7---------|
A|-----------------------------------------------|
E|-----------------------------------------------|


e|---------------------------------------------------|
B|-2-2-----2-------------------------8--8-----8--8---|
G|-2-2-----2-------------------------7--7-----7--7---|
D|-2-2-----2-----x---x-x---x-x---x---6--6-----6--6---|
A|-0-0-----0-----x---x-x---x-x---x---7--7-----7--7---|
E|-------3-------x---x-x---x-x---x-0-----------------|
-|                                                   |
e|---------------------------------------------------|
B|----------------------------------8----------------|
G|-7^(9)---------7^(9)-7pb(9)-7-5---10^(12)----------|
D|--------------------------------7------------------|
A|---------------------------------------------------|
E|---------------------------------------------------|



chorus:
(guitar 1:)
e|-------------------------------------------------|
B|-------------------------------------------------|
G|-2-----4-----5-----5-----------------------------|
D|-2-----4-----5-----5-----3-----3-----2-----2-----|
A|-0-----2-----3-----3-----3-----3-----2-----2-----|
E|-------------------------1-----1-----0-----3-----|
-| (guitar 2:)                                     |
e|-------------------------------1-----0-----------|
B|-2-----4-----5-----5-----------1-----0-----------|
G|-2-----4-----5-----5-----2-----2-----1-----0-----|
D|-2-----4-----5-----5-----3-----3-----2-----0-----|
A|-------------------------3-----3-----2-----------|
E|-------------------------1-----1-----0-----------|


e|-------------------------------------------------|
B|-------------------------------------------------|
G|-2-----4-----5-----5-----------------------------|
D|-2-----4-----5-----5-----3-----3-----2-----2-----|
A|-0-----2-----3-----3-----3-----3-----2-----2-----|
E|-------------------------1-----1-----0-----3-----|
-|                                                 |
e|-------------------------------1-----0-----------|
B|-2-----4-----5-----5-----------1-----0-----------|
G|-2-----4-----5-----5-----2-----2-----1-----0-----|
D|-2-----4-----5-----5-----3-----3-----2-----0-----|
A|-------------------------3-----3-----2-----------|
E|-------------------------1-----1-----0-----------|


e|-------------------------------------------------------------------------|
B|-------------------------------------------------------------------------|
G|-2-----4-----5-----5-----------------------------3-----3-----3-----3-----|
D|-2-----4-----5-----5-----3-----3-----3-----3-----3-----3-----3-----3-----|
A|-0-----2-----3-----3-----3-----3-----3-----3-----1-----1-----1-----1-----|
E|-------------------------1-----1-----1-----1-----------------------------|
-|                                                                         |
e|-------------------------------1-----------1-----------------------------|
B|-2-----4-----5-----5-----1-----1-----1-----1-----3-----3-----3-----3-----|
G|-2-----4-----5-----5-----2-----2-----2-----2-----3-----3-----3-----3-----|
D|-2-----4-----5-----5-----3-----3-----3-----3-----3-----3-----3-----3-----|
A|-------------------------3-----3-----3-----3-----------------------------|
E|-------------------------1-----1-----1-----1-----------------------------|

e|-------------|
B|-------------|
G|-------------|
D|-2-2-------2-|
A|-2-2-------2-|
E|-0-0-------3-|
-|             |
e|-------------|
B|-------------|
G|-1-1-------1-|
D|-2-2-------2-|
A|-2-2-------2-|
E|-0-0-------0-|


verse 2:
(guitar 1:)
e|-----------------------------------------------|
B|-2-2-----2-------------------------------------|
G|-2-2-----2-------------------------------------|
D|-2-2-----2-----x---x-x---x-x---x-x---x-x---x-x-|
A|-0-0-----0-----x---x-x---x-x---x-x---x-x---x-x-|
E|-------3-------x---x-x---x-x---x-x---x-x---x-x-|
-| (guitar 2:)                                   |
e|-----------------------------------------------|
B|-2-2-----2-------------------------------------|
G|-2-2-----2-------------------------------------|
D|-2-2-----2-----x---x-x---x-x---x-x---x-x---x-x-|
A|-0-0-----0-----x---x-x---x-x---x-x---x-x---x-x-|
E|-------3-------x---x-x---x-x---x-x---x-x---x-x-|


e|-----------------------------------------------|
B|-2-2-----2-------------------------------------|
G|-2-2-----2-------------------------------------|
D|-2-2-----2-----x---x-x---x-x---x-x---x-x---x-x-|
A|-0-0-----0-----x---x-x---x-x---x-x---x-x---x-x-|
E|-------3-------x---x-x---x-x---x-x---x-x---x-x-|
-|                                               |
e|-----------------------------------------------|
B|-2-2-----2-------------------------------------|
G|-2-2-----2-------------------------------------|
D|-2-2-----2-----x---x-x---x-x---x-x---x-x---x-x-|
A|-0-0-----0-----x---x-x---x-x---x-x---x-x---x-x-|
E|-------3-------x---x-x---x-x---x-x---x-x---x-x-|


e|-----------------------------------------------|
B|-2-2-----2-------------------------------------|
G|-2-2-----2-------------------------------------|
D|-2-2-----2-----x---x-x---x-x---x-x---x-x---x-x-|
A|-0-0-----0-----x---x-x---x-x---x-x---x-x---x-x-|
E|-------3-------x---x-x---x-x---x-x---x-x---x-x-|
-|                                               |
e|-----------------------------------------------|
B|-----------------------------------------------|
G|---------------7^(9)---7-5-----------------5---|
D|---------------------------7-5-7-----7---------|
A|-----------------------------------------------|
E|-----------------------------------------------|


e|-----------------------------------------------|
B|-2-2-----2-------------------------------------|
G|-2-2-----2-------------------------------------|
D|-2-2-----2-----x---x-x---x-x---x-x---x-x---x-x-|
A|-0-0-----0-----x---x-x---x-x---x-x---x-x---x-x-|
E|-------3-------x---x-x---x-x---x-x---x-x---x-x-|
-|                                               |
e|-----------------------------------------------|
B|-----------------------------------------------|
G|-7^(9)---------7^(9)---7-5---5-----------------|
D|---------------------------7---7~--------------|
A|-----------------------------------------------|
E|-----------------------------------------------|


e|-----------------------------------------------|
B|-2-2-----2-------------------------------------|
G|-2-2-----2-------------------------------------|
D|-2-2-----2-----x---x-x---x-x---x-x---x-x---x-x-|
A|-0-0-----0-----x---x-x---x-x---x-x---x-x---x-x-|
E|-------3-------x---x-x---x-x---x-x---x-x---x-x-|
-|                                               |
e|-----------------------------------------------|
B|---------------7^(9)---7-5-----------5-----7---|
G|---------------7^(9)---7-5-----------5-----7---|
D|---------------------------7-5-7---------------|
A|-----------------------------------------------|
E|-----------------------------------------------|


e|---------------------------------------------------|
B|-2-2-----2-------------------------8--8-----8--8---|
G|-2-2-----2-------------------------7--7-----7--7---|
D|-2-2-----2-----x---x-x---x-x---x---6--6-----6--6---|
A|-0-0-----0-----x---x-x---x-x---x---7--7-----7--7---|
E|-------3-------x---x-x---x-x---x-0-----------------|
-|                                                   |
e|---------------------------------------------------|
B|---------------7^----------8-----------------------|
G|-7^(9)---------7^----7-5-7-10^(12)-----------------|
D|---------------------------------------------------|
A|---------------------------------------------------|
E|---------------------------------------------------|


guitar solo:
(guitar 3:)
e|-----------------------------------------------|
B|-----------------------------------------------|
G|---------------7^(9)---7-5-----------------5---|
D|---------------------------7-5-7-----7---------|
A|-----------------------------------------------|
E|-----------------------------------------------|

e|-----------------------------------------------|
B|-----------------------------------------------|
G|-7^(9)---------7^(9)---7-5---5-----------------|
D|---------------------------7---7~--------------|
A|-----------------------------------------------|
E|-----------------------------------------------|

e|-----------------------------------------------|
B|-----------------------------------------------|
G|---------------7^(9)---7-5-----------------5---|
D|---------------------------7-5-7-----7---------|
A|-----------------------------------------------|
E|-----------------------------------------------|

e|---------------------------------------------------|
B|---------------7^----------8-----------------------|
G|-7^(9)---------7^----7-5---10^(12)-----------------|
D|-------------------------7-------------------------|
A|---------------------------------------------------|
E|---------------------------------------------------|




slide guitar solo:
(guitar 4:)
e|------------------------------------------|
B|------------------------------------------|
G|-------14----14---14----/17---17-16-------|
D|-/14------14---------14-------------------|
A|------------------------------------------|
E|------------------------------------------|

e|--------------------------------17~-------|
B|------------------------15---15-17~-------|
G|-------14----14---14----------------------|
D|-/14------14---------14-------------------|
A|------------------------------------------|
E|------------------------------------------|

e|------------------------------------------|
B|------------------------------------------|
G|-------14----14---14----/17---17-16-------|
D|-/14------14---------14-------------------|
A|------------------------------------------|
E|------------------------------------------|

e|-15\----------------------------------------17------17\--|
B|-15\---------------------/17-------------17------17------|
G|---------------------------------------------------------|
D|---------------------------------------------------------|
A|---------------------------------------------------------|
E|---------------------------------------------------------|


bridge ending:
(guitar 1:)
e|-------------------------|
B|-------------------------|
G|-------------------------|
D|-2-------------------(2)-|
A|-2-------------------(2)-|
E|-0-------------------(0)-|
-| (guitar 2:)             |
e|-0-------------------(0)-|
B|-0-------------------(0)-|
G|-1-------------------(1)-|
D|-2-------------------(2)-|
A|-2-------------------(2)-|
E|-0-------------------(0)-|



Outro:
e|-----------------------------------------------|
B|-2-2-----2-------------------------------------|
G|-2-2-----2-------------------------------------|
D|-2-2-----2-----x---x-x---x-x---x-x---x-x---x-x-|
A|-0-0-----0-----x---x-x---x-x---x-x---x-x---x-x-|
E|-------3-------x---x-x---x-x---x-x---x-x---x-x-|
-| (guitar 2:)                                   |
e|-----------------------------------------------|
B|-2-2-----2-------------------------------------|
G|-2-2-----2-------------------------------------|
D|-2-2-----2-----x---x-x---x-x---x-x---x-x---x-x-|
A|-0-0-----0-----x---x-x---x-x---x-x---x-x---x-x-|
E|-------3-------x---x-x---x-x---x-x---x-x---x-x-|


e|-----------------------------------------------|
B|-2-2-----2-------------------------------------|
G|-2-2-----2-------------------------------------|
D|-2-2-----2-----x---x-x---x-x---x-x---x-x---x-x-|
A|-0-0-----0-----x---x-x---x-x---x-x---x-x---x-x-|
E|-------3-------x---x-x---x-x---x-x---x-x---x-x-|
-|                                               |
e|-----------------------------------------------|
B|-2-2-----2-------------------------------------|
G|-2-2-----2-------------------------------------|
D|-2-2-----2-----x---x-x---x-x---x-x---x-x---x-x-|
A|-0-0-----0-----x---x-x---x-x---x-x---x-x---x-x-|
E|-------3-------x---x-x---x-x---x-x---x-x---x-x-|


e|-----------------------------------------------|
B|-2-2-----2-------------------------------------|
G|-2-2-----2-------------------------------------|
D|-2-2-----2-----x---x-x---x-x---x-x---x-x---x-x-|
A|-0-0-----0-----x---x-x---x-x---x-x---x-x---x-x-|
E|-------3-------x---x-x---x-x---x-x---x-x---x-x-|
-|                                               |
e|-----------------------------------------------|
B|-2-2-----2-------------------------------------|
G|-2-2-----2-------------------------------------|
D|-2-2-----2-----x---x-x---x-x---x-x---x-x---x-x-|
A|-0-0-----0-----x---x-x---x-x---x-x---x-x---x-x-|
E|-------3-------x---x-x---x-x---x-x---x-x---x-x-|


e|---------------|
B|-2-2-----2-----|
G|-2-2-----2-----|
D|-2-2-----2-----|
A|-0-0-----0-----|
E|-------3-------|
-|               |
e|---------------|
B|-2-2-----2-----|
G|-2-2-----2-----|
D|-2-2-----2-----|
A|-0-0-----0-----|
E|-------3-------|


Order:
drum intro
verse 1
chorus
verse 2
chorus
guitar solo/verse
slide guitar solo/chorus
drum bridge
bridge ending
chorus x2
outro


************************************

| /   slide up
| \   slide down
| h   hammer-on
| p   pull-off
| ~   vibrato
| +   harmonic
| x   Mute note
| b   Bend
| pb  Pre-bend
| br  Bend release
| pbr Pre-bend release
| brb Bend release bend

************************************
Tap to rate this tab
 
# A B C D E F G H I J K L M N O P Q R S T U V W X Y Z