Billy Bragg And Wilco - Remember The Mountain Bed tab

Capo on 3rd Fret

e---2---2222-22------------------------------------------|
B---3---3333-33------------------------------------------|
G---2---2222-22------------------------------0000---0000-|
D---0h4-44444--0-0h2-2-5-4--2-2p0-000---00---0000---0000-|
A----------------0-ring-------0---000h2-00h2------2------|
E---------------------------------333---33--------3------|

e-------------------------------------------------------------|
B----00000------------------------2-2222---2222---2222---2222-|
G----4444420----------000---------2-2222---2222---2222---2222-|
D----0000000-2h4-0----000-0-00---22-2222---2222-2-2222---2222-|
A---2--------0-----0h2-----------00-0000-0-0000-0-0000-0-0000-|
E---3--------------3----------0h2--------0-------------0------|

e----22222-0-2------------------------------------------------------------|
B----33333-----3/5-3333---3333--------------------------------------------|
G----44444---------0000---0000-0-00-------0--0000-0--0000-0--0000-0--0000-|
D---4--------------0000-0-0000-0--0-4-2-0-0--0000-0--0000-0--0000-0--0000-|
A---2-------------------------------0---0-0h22222-0h22222-0h22222-0h22222-|
E-----------------------------------------3--3333-3--3333-3--3333-3--3333-|

e---2--22222---------------------------------------2-22222-|
B---3--33333-----1--1111-0--0000-------------------3-33333-|
G---2--22222-----0--0000-0--0000-0--0000-----------2-22222-|
D---0h444444-2-0-0h22222-2--2222-0--0000-0h2p0-----0-00000-|
A----------------3--3333-0h22222-0h22222-------2-0---------|
E------------------------0--0000-3--3333-------------------|
Tap to rate this tab
 
# A B C D E F G H I J K L M N O P Q R S T U V W X Y Z