Song name
# A B C D E F G H I J K L M N O P Q R S T U V W X Y Z

Billy Bragg And Wilco - Someday Some Morning Sometime tab

-------------------------------------------------------------------------------
                SOMEDAY SOME MORNING SOMETIME - Billy Bragg And Wilco
-------------------------------------------------------------------------------
Tabbed by: jvwald

Tuning: DADADe (the 4th and 5th strings get pretty tight)

intro
e|-----------------5----------3-0-----5-5------5--0-0---5------------|
D|--7--7--5--5---4-4-4-5-4--2---------5-5------5--0---0-5----5-----0-|
A|--9--9--7--7---5-5-5-5-5--2-----2---5-5--7-5-5--0-----5--7---7/9---|
D|--------------------------2-----2---5-5------5--0-----5------------|
A|--------------------------x-----x---5-5------5--0-----5------------|
D|--------------------------2-----2---5-5------5--0-----5------------|

D5 000xxx
E5 222xxx
F#5 444XXX
G5 555xxx
A5 777xxx

E5 / G5       F5    E5          A5         D5
Someday, some morning, sometime, sometime.
E5 / G5                     D5
I'd like to hold your hand in mine.
E5 / G5                      D5
Someday some morning sometime.

E5 / G5       F5    E5          A5         D5
I'd like to tell you, you're pretty and fine,
E5 / G5                     D5
Your face will smile an your eyes will shine,
E5 / G5                      D5
Someday some morning sometime.

(intro)

E5 / G5       F5    E5          A5         D5
I'll build you a house all covered in vines,
E5 / G5                     D5
I'll bring you a nickel, I'll bring you a dime,
E5 / G5                      D5
Someday some morning sometime.

E5 / G5       F5    E5          A5         D5
Five six seven eight oh nine,
E5 / G5                     D5
I'll take you down where the birds fly by
E5 / G5                      D5
Someday some morning sometime.

e|----------5---------------5-----------------|
D|----------5---------------5-----5-----------|
A|----5~~~--5--7-5----5~~~--5--7-----5-5------|
D|--4-------5-------4-------5-------4--4-4b5--|
A|----------5---------------5-----------------|
D|----------5---------------5-----------------|

(intro) 

************************************

| /   slide up
| \   slide down
| h   hammer-on
| p   pull-off
| ~   vibrato
| +   harmonic
| x   Mute note
| b   Bend
| pb  Pre-bend
| br  Bend release
| pbr Pre-bend release
| brb Bend release bend

************************************
Tap to rate this tab
# A B C D E F G H I J K L M N O P Q R S T U V W X Y Z