Song name
# A B C D E F G H I J K L M N O P Q R S T U V W X Y Z

Billy Cobham - Crosswind tab

Crosswind
by Billy Cobham
Tab by Erich Schneider   (erichschneider1@yahoo.com)

H =  Hammer on
S =  Slide
) =  1 quarter break pause
). = 1 doted quarter pause


E------------------------|-------------|-------------|-------------|
B------------------------|-------------|---------3---|-------------|
G--4---2-4---------------|-------------|-----2-4---4-|--2-4--------|
D----4-------4-0-2-3-4-0-|----------)-)|-)-)---------|-------)--)--|
A------------------------|--0-2-4-2----|-------------|-------------|
E------------------------|--(H)--------|-------------|-------------|


E------------------------|-------------|---------4-5-4---7---------|
B------------------------|-------------|-----4-6-------7-----------|
G--4---2-4---------------|-------------|---4-----------------------|
D----4-------4-0-2-3-4-0-|----------)-)|-).------------------------|
A------------------------|--0-4-2------|---------------------------|
E------------------------|--(H)--------|---------------------------|



E--12----|------3--|-------3---3-5-3-5--6--5-3--5--3---------------|
B--------|--3-5----|--3--5------------(S)------------5-3-----------|
G--------|---------|-----------------------------------------------|
D--------|---------|-----------------------------------------------|
A--------|---------|-----------------------------------------------|
E--------|---------|-----------------------------------------------|


E------------------------|-------------|-------------|-----------7-|
B------------------------|-------------|---------3---|-------------|
G--4---2-4---------------|-------------|-----2-4---4-|--2-4--------|
D----4-------4-0-2-3-4-0-|----------)-)|-)-)---------|-------)--)--|
A------------------------|--0-2-4-2----|-------------|-------------|
E------------------------|--(H)--------|-------------|-------------|



It happens that Iím the first to upload this song by Billy Cobham. 
Until today the 25th of February wasnít any tab of Crosswind available.
This tab is perfect. No note is missing. The horn arrangements are not included.
Have fun, this is a great song.

Regards
Erich

Tap to rate this tab
# A B C D E F G H I J K L M N O P Q R S T U V W X Y Z