Song name
# A B C D E F G H I J K L M N O P Q R S T U V W X Y Z

Billy Corgan - To Love Somebody Acoustic chords

Highlighted       Show chord diagrams
Billy Corgan - To Love Somebody (acoustic) BCIT

(Bee Gees-Cover)

Recorded live in Milan / Italy (2005)

Transcribed by: Matthias Scheffler

mshfx1@gmail.com


Tuning: Db - Gb - C - Ab - Ab - Eb


    Fm7                   Bm74sus                  Db9                  
----0----               ----0----               ----0----
----0----               ----0----               ----0----
----4----               ----0----               ----0----
----5----               ----5----               ----1----
----6----               ----4----               ----2----
----x----               ----x----               ----0----



  [ch]Ab9/Bb[/ch]                   Ab5                     [ch]Ab/C[/ch]
----0----               ----0----               ----0----
----0----               ----0----               ----0----
----2----               ----0----               ----0----
----3----               ----3----               ----0----
----4----               ----2----               ----6----
----x----               ----x----               ----x----






Intro:  Fm7   Bm74sus  Bm74sus  Fm7   Db9   Fm7   [ch]Ab9/Bb[/ch]   Db9




        Fm7     Bm74sus                                           Fm7   
Thereīs a light - a certain kind of light - that never shone on me - yeah


Db9               Fm7             [ch]Ab9/Bb[/ch]           Db9          
I want my life to be - lived with you - lived with you


Db9             Fm7           Bm74sus                       Fm7
Thereīs a way - everybody say - to do each and every little thing, yeah


Bm74sus          Fm7                    [ch]Ab9/Bb[/ch]          Db9             
But what does it bring - if I ainīt got you - ainīt got you?



Db9                      Fm7    [ch]Ab9/Bb[/ch]                   Db9
You donīt know what itīs like - you donīt know what itīs like


        [ch]Ab/C[/ch]               Bm74sus              Fm7       Db9
To love somebody - to love somebody - the way I love you



        Fm7  Bm74sus                                        Fm7
In my brain - I can see your face again - I know my frame of mind, yeah


Bm74sus                 Fm7             [ch]Ab9/Bb[/ch]           Db9
You ainīt got to be so blind - am I so blind, blind to believe


        Ab5 Bm74sus                        Fm7  
Iīm a man - canīt you see - this is what I am, yeah


Db9                     Fm7                     [ch]Ab9/B[/ch]             Db9
I live and breathe for you - but what does it do - if I ainīt got you?



Db9                     Bm74sus Fm7                     [ch]Ab9/Bb[/ch]
You donīt know what itīs like - you donīt know what itīs like


            [ch]Ab/C[/ch]           Bm74sus              Fm7       Db9
To love somebody - to love somebody - the way I love you



Db9                      Fm7   Bm74sus                  Fm7
You donīt know what itīs like- you donīt know what itīs like


            [ch]Ab/C[/ch]           Bm74sus              Fm7
To love somebody - to love somebody - the way I love you



        [ch]Ab/C[/ch]               Bm74sus              Ab5
To love somebody - to love somebody - the way I love you.
Tap to rate this tab
# A B C D E F G H I J K L M N O P Q R S T U V W X Y Z