Song name
# A B C D E F G H I J K L M N O P Q R S T U V W X Y Z

Billy Corgan - Mina Loy tab

Billy Corgan
Mina Loy
  this song has so much synth and heavy effects, its really hard to hear the actual
guitar, and even harder on my acoustic. these cords sound exactly like the rythem
guitar would. thanks and please rate.

standard tuning capo 1st fret

|------|
|------|
|--4---|
|--4---|  15TIMES
|--2---|
|--0---|

|-----|-------------------------|
|-----|-------------------------|
|--4--|-4-4-4-4-6-6-6-6-2-2-2-2-|
|--4--|-4-4-4-4-6-6-6-6-2-2-2-2-| 5 times
|--2--|-2-2-2-2-4-4-4-4-0-0-0-0-|
|--0--|-------------------------|

    VERSE

|-----------|----|
|-----------|----|
|-4--6--2---|-4--|
|-4--6--2---|-4--|  3 TIMES
|-2--4--0---|-2--|
|-----------|----|


    CHORUS

(0:38)
       2 times
|-----------|------|
|-----------|------|
|-----------|--4---|
|--5--7--2--|--4---|
|--5--7--2--|--2---|
|--3--5--0--|------|

(0:49)
    3 times
|------------|-------|
|------------|-------|
|-4-6-2------|-------|
|-4-6-2--5---|-7--2--|
|-2-4-0--5---|-7--2--|
|--------3---|-5--0--|

(1:08)
|-----|---------------|
|-----|---------------|
|-4---|-4-6-2---------|
|-4-5-|-4-6-2-5-------|
|-2-5-|-2-4-0-5-------|
|---3-|-------3-------|

(1:21)
      6 times
|---|------------|-----|
|---|------------|-----|
|-4-|-4-6-2------|-4---|
|-4-|-4-6-2------|-4---|
|-2-|-2-4-0------|-2---|
|---|------------|-----|

(1:48)
 2 times  4 times
|-------|----------|-----------|
|-------|----------|-----------|
|-------|-4-6-2----|-----------|
|-5-7-2-|-4-6-2--5-|-7---------|
|-5-7-2-|-2-4-0--5-|-7---------|
|-3-5-0-|--------3-|-5---------|

(2:20)

|-------|-----------|
|-------|-----------|
|-4-6-2-|-----------|
|-4-6-2-|-5-7-2-----|
|-2-4-0-|-5-7-2-----|
|-------|-3-5-0-----|

|---------------|
|---------------|
|--4-6-2--------|
|--4-6-2--5-----|
|--2-4-0--5-----|
|---------3-----|
  (2:33)
|-------------------|
|-------------------|
|-4--4--------------|
|-4--4-5--7--2------|
|-2--2-5--7--2------|
|------3--5--0------|

  (3:19)

|-----------------------|
|-----------------------|
|-4--6--2---------------|
|-4--6--2---5-7--2------|
|-2--4--0---5-7--2------|
|-----------3-5--0------|

end on

|----
|----
|----
|-5--
|-5--
|-3--
Tap to rate this tab
# A B C D E F G H I J K L M N O P Q R S T U V W X Y Z