Song name
# A B C D E F G H I J K L M N O P Q R S T U V W X Y Z

Billy Currington - People Are Crazy tab

-------------------------------------------------------------------------------
			     People Are Crazy - Billy Currington
-------------------------------------------------------------------------------
Tabbed by: Tyler
Email: jcplax12@gmail.com

Tuning: Standard (Capo on 5th)

e|---------------------------------------------------------------------------||
B|-----5-5--5-3-1---1h3-3-3---33-5-3-1---------------------------------------||o
G|----------------0---------0------------------------------------------------||
D|---2-----------------------------------------------------------------------||
A|-3-------------------------------------------------------------------------||o
E|---------------------------------------------------------------------------||

Play twice.
Great song. Simple intro. Chords (also pretty easy)to follow.

| /  slide up
| \  slide down
| h  hammer-on
| p  pull-off
| ~  vibrato
| +  harmonic
| x  Mute note
===============================================================================
Tap to rate this tab
# A B C D E F G H I J K L M N O P Q R S T U V W X Y Z