Song name
# A B C D E F G H I J K L M N O P Q R S T U V W X Y Z

Billy Currington - People Are Crazy tab

(play x2)
e|-------5-5--5p3-1---1h3--3-3-33--5-3-1--------------------------------||
B|------------------1---------------------------------------------------||
G|----------------------------------------------------------------------||
D|----------------------------------------------------------------------||
A|----------------------------------------------------------------------||
E|----------------------------------------------------------------------||

or

(play x2)
e|-------------------------------------------------------------------------||
B|---10-10--10p8-6---6h8-8-8--88-10-8-6------------------------------------||
G|-----------------5-------------------------------------------------------||
D|-------------------------------------------------------------------------||
A|-------------------------------------------------------------------------||
E|-------------------------------------------------------------------------||


p= pull off
h= hammer on
Tap to rate this tab
# A B C D E F G H I J K L M N O P Q R S T U V W X Y Z