Billy Currington - Good Directions tab

Tabbed By- Frank Lo
 
Now this is right

e----------------------------------------------------------------------|
B----------------------------------------------------------------------|
G---------------------7-5-------------------7-5------------------------|
D-----------5/7-5/7-------5b-3-5-3-5/7-5/7------5b-3-0-2-3-3-2-0--0-0--|
A-----3-5p3-----------------------------------------------------3----3-|
E-3/5------------------------------------------------------------------|

e----------------------------------------------------------------------|
B-----------------------1----------------------------------------------|
G-------------------1h3------------------------------------------------|
D---------------1h3----------------------------------------------------|
A------------1-3-------------------------------------------------------|
E-3b-1-4-1-------------------------------------------------------------|
Tap to rate this tab
 
# A B C D E F G H I J K L M N O P Q R S T U V W X Y Z