Guitaretab - guitar tabs
Song name
# A B C D E F G H I J K L M N O P Q R S T U V W X Y Z

Billy Idol - John Wayne tab

Highlighted       Show chord diagrams
Billy Idol - John Wayne
by AdVisory


*riff1
   Bm      D       G       Em
e|-2-------2-------3-------0-------------|
B|---3-------3-------3-------0-----------|
G|-----4-------2-------0-------0---------|
D|---------------------------------------|
A|---------------------------------------|
E|---------------------------------------|

*riff2
   B5       D5          G5           E5
e|-------7-----------10--------------------7----|
B|-----7----------10-------------12------8------|
G|---7---------11-------------12-------9--------|
D|-------------------------12-------------------|
A|----------------------10-----------7----------|
E|-7--------10----------------------------------|



Intro: Bm, D, G, Em x1, then *riff1


                     Bm     D
You know you make me crazy
               G        Em
and my mind is racing
                      Bm    D
you're wastin' all my time
                 G       
someone come and save me
   Em
oh yeah

*riff1        Bm
'Cause when I need you
      D
I can see through
      G
and I feel you
      Em
right now
       Bm
All my highway
      D
doin' my way
      G
and I want you to feel
     Em
when I'm going down


Chorus

*riff2
B5
I am not affraid
      D5
and I won't go down in fate
G5                     E5
nothing's gonna be the same
    B5
and everything you know
D5
keep inside your soul
  G5                      E5
tonight I'm gonna be John Wayne
   
Oh yeah
[ Tab from: http://www.guitaretab.com/b/billy-idol/170468.html ]
   Bm      D       G       Em
e|-2-------2-------3-------0-------------|
B|---3-------3-------3-------0-----------|
G|-----4-------2-------0-------0---------|
D|---------------------------------------|
A|---------------------------------------|
E|---------------------------------------|

                    Bm       D
our colder Days are chasin'
                     G        Em
and you're not gonna face it
                    Bm       D
the reason's in the rhyme
                       G   
you walked on what was sacrid
   Em
Oh yeah

*riff1     Bm
And when I need you
      D
I can reach you
      G
and I feel you
      Em
right now
       Bm
it's a new day
         D
but your skies are grey
      G
and I want you to feel
     Em
when I'm going down


Chorus

*riff2
B5
I am not affraid
      D5
and I won't go down in fate
G5                     E5
nothing's gonna be the same
    B5
and everything you know
D5
keep inside your soul
  G5                      E5
tonight I'm gonna be John Wayne
   
Oh yeah


*guitar solo (same chords as in chorus)


Bm
everything you know
D
keep inside your soul
G                         Em
tonight I'm gonna be John Wayne


Chorus

*riff2
B5
I am not affraid
      D5
and I won't go down in fate
G5                     E5
nothing's gonna be the same
    B5
and everything you know
D5
keep inside your soul
  G5                      E5
tonight I'm gonna be John Wayne


B5                *riff1
I am not affraid
      D5
and I won't go down in fate
G5                     E5
nothing's gonna be the same
    B5
and everything you know
D5
keep inside your soul
  G5                      E5
tonight I'm gonna be John Wayne
Related for John Wayne tab