Song name
# A B C D E F G H I J K L M N O P Q R S T U V W X Y Z

Billy Idol - Hole In The Wall tab

--------Hole in The Wall  Billy Idol---------
Tabbed by: Wyatt Divine	

Email:wyattd@live.com

Tuning: Standard EADGBE

Note: This song sounds best with a good dose of reverb.

Repeat 4x
e|---------------------------------------------------------------|
B|-7-7-5-4-2---9-9-7-7-9-9-7-7-----------------------------------|
G|-------------8-8-6-6-8-8-6-6-----------------------------------|
D|---------------------------------------------------------------|
A|---------------------------------------------------------------|
E|---------------------------------------------------------------|
Repeat 6x
e|---------------------------------------------------------------|
B|-------10---------5-4------------------------------------------|
G|-------9--------x----------------------------------------------|
D|--------------x------------------------------------------------|
A|-0-4--------x--------------------------------------------------|
E|-0-2-----------------------------------------------------------|
Repeat 3x
e|---------------------------------------------------------------|
B|---------9-----------------------------------------------------|
G|---------9-----------------------------------------------------|
D|---------------------------------------------------------------|
A|-9--7----------------------------------------------------------|
E|---------------------------------------------------------------|

e|---------------------------------------------------------------|
B|---------------------------------------------------------------|
G|---------------------------------------------------------------|
D|---9----9-9-9-9------------------------------------------------|
A|---7----7-7-7-7------------------------------------------------|
E|---------------------------------------------------------------|
Repeat 2x
e|---------------------------------------------------------------|
B|---------------------------------------------------------------|
G|---------------------------------------------------------------|
D|---------------------------------------------------------------|
A|-0-4--0-4--0-4--0--7--9----------------------------------------|
E|-0-2--0-2--0-2--0--5--7----------------------------------------|
Repeat 6x
e|---------------------------------------------------------------|
B|-------10---------5-4------------------------------------------|
G|-------9--------x----------------------------------------------|
D|--------------x------------------------------------------------|
A|-0-4--------x--------------------------------------------------|
E|-0-2-----------------------------------------------------------|
Repeat 3x
e|---------------------------------------------------------------|
B|---------9-----------------------------------------------------|
G|---------9-----------------------------------------------------|
D|---------------------------------------------------------------|
A|-9--7----------------------------------------------------------|
E|---------------------------------------------------------------|

e|---------------------------------------------------------------|
B|---------------------------------------------------------------|
G|---------------------------------------------------------------|
D|---9----9-9-9-9------------------------------------------------|
A|---7----7-7-7-7------------------------------------------------|
E|---------------------------------------------------------------|
Repeat 2x
e|---------------------------------------------------------------|
B|---------------------------------------------------------------|
G|---------------------------------------------------------------|
D|---------------------------------------------------------------|
A|-0-4--0-4--0-4--0--7--9----------------------------------------|
E|-0-2--0-2--0-2--0--5--7----------------------------------------|
Repeat 4x
e|---------------------------------------------------------------|
B|-7-7-5-4-2---9-9-7-7-9-9-7-7-----------------------------------|
G|-------------8-8-6-6-8-8-6-6-----------------------------------|
D|---------------------------------------------------------------|
A|---------------------------------------------------------------|
E|---------------------------------------------------------------|
End the 4th playthrough with:
e|--14-14--------------------------------------------------------|
B|--14-14--------------------------------------------------------|
G|---------------------------------------------------------------|
D|---------------------------------------------------------------|
A|---------------------------------------------------------------|
E|---------------------------------------------------------------|
Keep sliding until the sound fades, like the song.
Repeat 2x
e|---------------------------------------------------------------|
B|---------------------------------------------------------------|
G|---------------------------------------------------------------|
D|-7/8\7/8\7/8\7/8\7---------------------------------------------|
A|---------------------------------------------------------------|
E|---------------------------------------------------------------|
Use the same technique as above.
Repeat 2x
e|---------------------------------------------------------------|
B|---------------------------------------------------------------|
G|-8/9\8/9\8/9\8-------------------------------------------------|
D|-7/8\7/8\7/8\7-------------------------------------------------|
A|---------------------------------------------------------------|
E|---------------------------------------------------------------|
Repeat 8x
e|---------------------------------------------------------------|
B|-------10---------5-4------------------------------------------|
G|-------9--------x----------------------------------------------|
D|--------------x------------------------------------------------|
A|-0-4--------x--------------------------------------------------|
E|-0-2-----------------------------------------------------------|
Repeat 3x
e|---------------------------------------------------------------|
B|---------9-----------------------------------------------------|
G|---------9-----------------------------------------------------|
D|---------------------------------------------------------------|
A|-9--7----------------------------------------------------------|
E|---------------------------------------------------------------|

e|---------------------------------------------------------------|
B|---------------------------------------------------------------|
G|---------------------------------------------------------------|
D|---9----9-9-9-9------------------------------------------------|
A|---7----7-7-7-7------------------------------------------------|
E|---------------------------------------------------------------|
Repeat 2x
e|---------------------------------------------------------------|
B|---------------------------------------------------------------|
G|---------------------------------------------------------------|
D|---------------------------------------------------------------|
A|-0-4--0-4--0-4--0--7--9----------------------------------------|
E|-0-2--0-2--0-2--0--5--7----------------------------------------|
Repeat 8x. This includes the times this is played fading out.
e|---------------------------------------------------------------|
B|-7-7-5-4-2---9-9-7-7-9-9-7-7-----------------------------------|
G|-------------8-8-6-6-8-8-6-6-----------------------------------|
D|---------------------------------------------------------------|
A|---------------------------------------------------------------|
E|---------------------------------------------------------------|

Key:
| /  slide up
| \  slide down
| x  Mute note
Tap to rate this tab
# A B C D E F G H I J K L M N O P Q R S T U V W X Y Z