Song name
# A B C D E F G H I J K L M N O P Q R S T U V W X Y Z

Billy Idol - Rat Race tab

Rat Race
Billy Idol
Intro


All notes are 16:th's.

E||-----------0------------0------------|----------0-----------0-----------|
B||---------0---0--------0---0--------0-|--------0---0-------0---0-------0-|
G||----11-----------11-----------11-----|----7-----------7-----------7-----|
D||--9----9-------9----9-------9----9---|--5---5-------5---5-------5---5---|
A||-------------------------------------|----------------------------------|
E||-------------------------------------|----------------------------------|


-----------0------------0------------|----------0-----------0-----------||
---------0---0--------0---0--------0-|--------0---0-------0---0-------0-||
----11-----------11-----------11-----|----7-----------7-----------7-----||
--9----9-------9----9-------9----9---|--5---5-------5---5-------4---4---||
-------------------------------------|----------------------------------||
-------------------------------------|----------------------------------||

And repeat.
Tap to rate this tab
# A B C D E F G H I J K L M N O P Q R S T U V W X Y Z