Song name
# A B C D E F G H I J K L M N O P Q R S T U V W X Y Z

Billy Idol - Body Snatcher - Devils Playground 2005 tab

 intro

e|----------------------------|
B|----------------------------|
G|----------------------------|
D|----------------------------|
A|----------------------------|
D|-0-0-0-0-0-0-0-0-0-0-0-0-0-0|          with a steve effect

the bass thing

and some acustic thing, i didn't figure that out, still in D

Chorus

e|----------------------------------------------------------------------|
B|----------------------------------------------------------------------|
G|----------------------------------------------------------------------|
D|---------7---------7---------7---------7---------10--------(x2)----0--|
A|---------5---------5---------5---------5---------8-----------------0--|
D|-0-0-0-0---0-0-0-0---0-0-0-0---0-0-0-0---0-0-0-0-------------------0--|


e|---------------------------------------|
B|---------------------------------------|
G|---------------------------------------|
D|---10---5---3---0---0---3---0---3---0--| (x4)
A|---10---5---3---0---0---3---0---3---0--|
D|---10---5---3---0---0---3---0---3---0--|

solo is too much for me but this is the rhythm  guitar

e|---------------------------------------|
B|---------------------------------------|
G|---------------------------------------|
D|---10---5---3---0---0---3---0---3---0--| (x4)
A|---10---5---3---0---0---3---0---3---0--|
D|---10---5---3---0---0---3---0---3---0--|

last verse is the same with the intro bass but with rhythm  guitar

e|---------------------------------------|
B|---------------------------------------|
G|---------------------------------------|  (x4)
D|---------------------------------------|
A|----3-3-3-3----------------------------|
D|------------5-5-5-3-3-0-0-0-3-0-3-0----|


Chorus.....


  Pretty much the whole song, just listen to it carefully, hope is not so fucked up!
                                                         Respect!
Tap to rate this tab
# A B C D E F G H I J K L M N O P Q R S T U V W X Y Z