Song name
# A B C D E F G H I J K L M N O P Q R S T U V W X Y Z

Billy Idol - Mony Mony tab

E|----------------------------|
A|----------------------------|
D|----------------------------|
G|-----5--3--5----5--3--5-----|
B|----------------------------|
e|--3-----------3-------------|

E|----------------------------|
A|----------------------------|
D|---5--3--5----5--3--5-------|
G|----------------------------|
B|-3---------3----------------|
e|----------------------------|

E|----------------------------|
A|----------------------------|
D|--6---6----6666-------------|
G|--6---6----6666-------------|
B|--3---3----3333-------------|
e|----------------------------|


repeat 
Tap to rate this tab
# A B C D E F G H I J K L M N O P Q R S T U V W X Y Z