Guitaretab - guitar tabs
Song name
# A B C D E F G H I J K L M N O P Q R S T U V W X Y Z

Billy Idol - World Comin Down tab

My first tab on UG, favorite tab site. I just got this album, so not sure.
Standard tuning

----------------------------World Comin' Down--------------------------------

Intro/riff(Figure out the rhythym, I tabbed correct number of hits)
[this part can be played 2 or 3 ways, I'll put the one I use]
e|000000000020444445454------------------------------------------------------|
B|---------------------------------------------------------------------------|
G|---------------------------------------------------------------------------|
D|---------------------------------------------------------------------------|
A|---------------------------------------------------------------------------|
E|---------------------------------------------------------------------------|
[ Tab from: http://www.guitaretab.com/b/billy-idol/58223.html ]
Verse[just chords, not number of times hit]
e|---------------------------------------------------------------------------|
B|---------------------------------------------------------------------------|
G|---------------------------------------------------------------------------|
D|7/9-7/9--------------------------------------------------------------------|
A|5/7-5/7--9-7-6-4-----------------------------------------------------------|
E|---------7-5-4-2-----------------------------------------------------------|

Chorus
e|---------------------------------------------------------------------------|
B|---------------------------------------------------------------------------|
G|---------------------------------------------------------------------------|
D|9--------------------------------------------------------------------------|
A|7-9-7-6-4------------------------------------------------------------------|
E|--7-5-4-2------------------------------------------------------------------|
Working on solo, please give feedback :)
Related for World Comin Down tab
Advertisement will be closed in 10 seconds