Song name
# A B C D E F G H I J K L M N O P Q R S T U V W X Y Z

Billy Idol - Summer Running tab

I figured out this song when I was bored so here it is its a good song have fun!

e|--------------------------------------------------------------------------|
B|--------------------------------------------------------------------------|
G|-----------------------------------------------5-4-----0------------------|
D|-------------------------7-7-----5-5-----7--------------------------------|
A|-3---------5----7----5----------------------------------------------------|
E|------3-------------------------------------------------------------------|

e|----------------------------------------------------------------------------|
-B|---------------------------------------------------------------------------|
G|-----------------------------------------------5-4-----0--------------------|
D|-------------------------7-7-----5-5-----7----------------------------------|
A|-3---------5----7----5------------------------------------------------------|
E|------3---------------------------------------------------------------------|

after that it repeats throughout the song.............

thats pretty much the whole intro to the song, I hear a little bit of playing that fills 
silent empty spaces in the song but its a little to quiet to figure out I guess its a 
until a devils playground book comes out happy playin.
Tap to rate this tab
 
# A B C D E F G H I J K L M N O P Q R S T U V W X Y Z