Song name
# A B C D E F G H I J K L M N O P Q R S T U V W X Y Z

Billy Joel - Longest Time tab

Billy Joel
The Longest Time

Tab created by Marc Woodford
Tuning is Standard


Intro / Chorus
e||-------------------------------------------------------------------------|
b||-------------------------------------------------------------------------|
G||-------------------------------------------------------------------------|
D||-------------------------------------------------------------------------|
A||--0----------------------------------------------------------------------|
E||----4-5-2--4-2-4-2-0----4-5-2--4-2-4-2-----------------------------------|

Verse
e||-------------------------------------------------------------------------|
b||-------------------------------------------------------------------------|
G||-------------------------------------------------------------------------|
D||--0-3-5-6-6-7-4-2-2----0-3-5-6-6-7-4-2-2---------------------------------|
A||-------------------------------------------------------------------------|
E||-------------------------------------------------------------------------|

e||-------------------------------------------------------------------------|
b||-------------------------------------------------------------------------|
G||-------------------------------------------------------------------------|
D||--4-6-8-11-9----6-8-10-14-14-12-10---------------------------------------|
A||--------------------------------------6-8-10-11-11-8-6-8-6-6-------------|
E||-------------------------------------------------------------------------|

Verse
e||-------------------------------------------------------------------------|
b||-------------------------------------------------------------------------|
G||-------------------------------------------------------------------------|
D||--0-3-5-6-6-7-4-2-2----0-3-5-6-6-7-4-2-2---------------------------------|
A||-------------------------------------------------------------------------|
E||-------------------------------------------------------------------------|

e||-------------------------------------------------------------------------|
b||-------------------------------------------------------------------------|
G||-------------------------------------------------------------------------|
D||--4-6-8-11-9----6-8-10-14-14-12-10-9-------------------------------------|
A||----------------------------------------6-8-10-11-11-8-6-8-6-6-----------|
E||-------------------------------------------------------------------------|

Chorus
e||-------------------------------------------------------------------------|
b||-------------------------------------------------------------------------|
G||-------------------------------------------------------------------------|
D||-------------------------------------------------------------------------|
A||--0----------------------------------------------------------------------|
E||----4-5-2--4-2-4-2-0----4-5-2--4-2-4-2-----------------------------------|

Verse
e||-------------------------------------------------------------------------|
b||-------------------------------------------------------------------------|
G||-------------------------------------------------------------------------|
D||--0-3-5-6-6-7-4-2-2----0-3-5-6-6-7-4-2-2---------------------------------|
A||-------------------------------------------------------------------------|
E||-------------------------------------------------------------------------|

e||-------------------------------------------------------------------------|
b||-------------------------------------------------------------------------|
G||-------------------------------------------------------------------------|
D||--4-6-8-11-9----6-8-10-14-14-12-10---------------------------------------|
A||----------------------------------------6-8-10-11-11-8-6-8-6-6-----------|
E||-------------------------------------------------------------------------|


e||-------------------------------------------------------------------------|
b||-------------------------------------------------------------------------|
G||-------------------------------------------------------------------------|
D||--0-0-0-0-0--------------------------------------------------------------|
A||-------------2-1-2---0-2-1-0-1--0-2-1-0----------------------------------|
E||-----------------------------------------3slide1-------------------------|

e||-------------------------------------------------------------------------|
b||-------------------------------------------------------------------------|
G||-------------------------------------------------------------------------|
D||--0-0-0-0-0--------------------------------------------------------------|
A||-------------2-1-2---0-2-1-0-1--0-2-1-0----------------------------------|
E||-----------------------------------------3-2-1---------------------------|

Verse
e||-------------------------------------------------------------------------|
b||-------------------------------------------------------------------------|
G||-------------------------------------------------------------------------|
D||--0-3-5-6-6-7-4-2-2----0-3-5-6-6-7-4-2-2---------------------------------|
A||-------------------------------------------------------------------------|
E||-------------------------------------------------------------------------|

e||-------------------------------------------------------------------------|
b||-------------------------------------------------------------------------|
G||-------------------------------------------------------------------------|
D||--4-6-8-11-9----6-8-10-14-14-12-10-9-------------------------------------|
A||----------------------------------------6-8-10-11-11-8-6-8-6-6-----------|
E||-------------------------------------------------------------------------|

e||-------------------------------------------------------------------------|
b||-------------------------------------------------------------------------|
G||-------------------------------------------------------------------------|
D||--0-0-0-0-0--------------------------------------------------------------|
A||-------------2-1-2---0-2-1-0-1--0-2-1-0----------------------------------|
E||-----------------------------------------3slide1-------------------------|

e||-------------------------------------------------------------------------|
b||-------------------------------------------------------------------------|
G||-------------------------------------------------------------------------|
D||--0-0-0-0-0--------------------------------------------------------------|
A||-------------2-1-2---0-2-1-0-1--0-2-1-0----------------------------------|
E||-----------------------------------------3-2-1---------------------------|

Verse
e||-------------------------------------------------------------------------|
b||-------------------------------------------------------------------------|
G||-------------------------------------------------------------------------|
D||--0-3-5-6-6-7-4-2-2----0-3-5-6-6-7-4-2-2---------------------------------|
A||-------------------------------------------------------------------------|
E||-------------------------------------------------------------------------|

e||-------------------------------------------------------------------------|
b||-------------------------------------------------------------------------|
G||-------------------------------------------------------------------------|
D||--4-6-8-11-9----6-8-10-14-14-12-10-9-------------------------------------|
A||----------------------------------------6-8-10-11-11-8-6-8-6-6-----------|
E||-------------------------------------------------------------------------|

Chorus
e||-------------------------------------------------------------------------|
b||-------------------------------------------------------------------------|
G||-------------------------------------------------------------------------|
D||-------------------------------------------------------------------------|
A||--0----------------------------------------------------------------------|
E||----4-5-2--4-2-4-2-0----4-5-2--4-2-4-2-----------------------------------|

Chorus / Outro
e||-------------------------------------------------------------------------|
b||-------------------------------------------------------------------------|
G||-------------------------------------------------------------------------|
D||-------------------------------------------------------------------------|
A||-------------------------------------------------------------------------|
E||----4-5-2--4-2-4-2-0----4-5-2--4-2-4-2-----------------------------------|
Tap to rate this tab
# A B C D E F G H I J K L M N O P Q R S T U V W X Y Z