Song name
# A B C D E F G H I J K L M N O P Q R S T U V W X Y Z

Billy Joel - Pressure tab

pretty simple tab...this is just the intro..please tell me how it is cuz this is my 
tab and i worked on it a lot..thanks

e--5--5--6--6-|--------6-6-5----|-------------|-----------------|
B---6--6--8--8|---5-8--------6--|--6--6--8--8-|---5--8--8--6----|
G-------------|-6-------------7-|---7--7--7--7|--6-----------7--|
D-------------|-----------------|-------------|-7--------------7|
A-------------|-----------------|-------------|-----------------|
E-------------|-----------------|-------------|-----------------|


e--5--5--6--6-|--------6-6-5----|-------------|---------9--10---|
B---6--6--8--8|---5-8--------6--|--6--6--8--8-|---5--8--8--10---|
G-------------|-6-------------7-|---7--7--7--7|-6---------------|
D-------------|-----------------|-------------|-----------------|
A-------------|-----------------|-------------|-----------------|
E-------------|-----------------|-------------|-----------------|
Tap to rate this tab
 
# A B C D E F G H I J K L M N O P Q R S T U V W X Y Z