Guitaretab - guitar tabs
Song name
# A B C D E F G H I J K L M N O P Q R S T U V W X Y Z

Billy Joel - The Stranger tab

Was playing around trying to convert from piano to guitar and thought it turned out 
good and decided to share.Hope you like !

e----------7----7-----8-5----5------------5-8-7--|
b---5-6-8------------------8---------6-8---------|
g 4-------------------------------4--------------|
d------------------------------------------------|
a------------------------------------------------|
E------------------------------------------------|
[ Tab from: http://www.guitaretab.com/b/billy-joel/217524.html ]
e-7---5--------------12--12--12-7-8-10---10--8-7-8----7--5-7--|
b---------8-6-5---5-------------------------------------8-----|
g-------------------------------------------------------------|
d=------------------------------------------------------------|
a-------------------------------------------------------------|
E-------------------------------------------------------------|

e-5---5---5---------------------------------------------|
b---8----8----------8-5-6---6--5--6--6------------------|
g-------------------------------------------------------|
d------------------------------------------------3------|
a---------------------------------------------6---------|
-E----------------------------------------5-7-----------|

This is my first tab .Let me know if you like it..Thanks
Related for The Stranger tab
The Stranger chords by Billy Joel