Song name
# A B C D E F G H I J K L M N O P Q R S T U V W X Y Z

Billy Joel - Vienna Waits For You tab

This is the accordion solo bit at around 2:00

---------------9h10--------------------------10-15-13--13-11-10--|
--6/11-10-11-13---13-11-10-11----11-10-11-13---------------------|
-----------------------------------------------------------------|
-----------------------------------------------------------------|
-----------------------------------------------------------------|
-----------------------------------------------------------------|


--8h7h8-7-8-10-8----10h11-10-11-13-15----15--15-17-18-|
------------------------------------------------------|
------------------------------------------------------|
------------------------------------------------------|
------------------------------------------------------|
------------------------------------------------------|
------------------------------------------------------|

--17-15----15-----------------------------/15-15-13-17-22-------|
--------18---18-16-18-----15-14----14-15------------------------|
--------------------------------16-----------------------20-----|
----------------------------------------------------------------|
----------------------------------------------------------------|
----------------------------------------------------------------|


P.S Because I can't play 23 too easy on my explorer I put down 20 on the G, which works 
sounds pretty fine.  But if you can play 22 if you have a baritone or something, that 
work better.

:D fantastic song
Tap to rate this tab
 
# A B C D E F G H I J K L M N O P Q R S T U V W X Y Z