Song name
# A B C D E F G H I J K L M N O P Q R S T U V W X Y Z

Billy Joel - Its Still Rock And Roll To Me tab

It's Still Rock and Roll to Me by Billy Joel

Solo as played on saxophone, transcribed for guitar

-------------------------------------12-------------------------------------|
-----13--15--15--15--15--15--15--15------15--13--13------13-----------------|
--14-------------------------------------------------14---------------------|
----------------------------------------------------------------------------|
----------------------------------------------------------------------------|
----------------------------------------------------------------------------|


----------------------------------------------------------------------------|
-----13--15b16r15--15b16r15--15b16r15--13--15--13---------------------------|
--14-----------------------------------------------(14)\\-------------------|
----------------------------------------------------------------------------|
----------------------------------------------------------------------------|
----------------------------------------------------------------------------|


----------------------------------------12----------------------------------|
--------13--15--15--15--15--15--15--15------15--13--13------13--------------|
--14-14-------------------------------------------------14------------------|
----------------------------------------------------------------------------|
----------------------------------------------------------------------------|
----------------------------------------------------------------------------|


----------------------------------------------------------------------------|
-----13--15b16r15--15b16r15--15b16r15--13--15--13---------------------------|
--14------------------------------------------------------------------------|
----------------------------------------------------------------------------|
----------------------------------------------------------------------------|
----------------------------------------------------------------------------|


----------------------------------------------------------------------------|
--13--11--11----11--13----15--13--13------13---15--17~~~\\------------------|
-------------12-----------------------14------------------------------------|
----------------------------------------------------------------------------|
----------------------------------------------------------------------------|
----------------------------------------------------------------------------|
Tap to rate this tab
 
# A B C D E F G H I J K L M N O P Q R S T U V W X Y Z