Song name
# A B C D E F G H I J K L M N O P Q R S T U V W X Y Z

Billy Joel - Shes Always A Woman To Me tab

-------------------------------------------------------------------------------
			     She's always a Woman to Me - Billy Joel
-------------------------------------------------------------------------------
Tabbed by: Jarom!r
Email: lionfalcon@web.de

Tuning: Standart

  intro:

e|--------------------|------------------------------------------------------|
B|-3--3--3--2--2-4--3-|-3------2------------3--------------2-------------3---|
G|-2--2--2--2--2-2--4-|-2------2------------2--------------2-------------2---|
D|-4--5--4--2--2-3--5-|-4------2------------4--------------2-------------0---|
A|--------------------|------------------------------------------------------|
E|--------------------|------------------------------------------------------|
                       She can kill with a smile, She can wound with her eyes

e|---------------------------------------------------------------------------|
B|----------3---------3---------------3-----2--0-----------------------------|
G|----------2---------4---------------2-----2--0-----------------------------|
D|----------4---------5---------------4-----2--0-----------------------------|
A|----------5----------------------------------------------------------------|
E|---------------------------------------------------------------------------|
   She can ruin your faith with her casual lies

e|---------------------------------------------------------------------------|
B|---------2-------3--------------2------------2-----------------------------|
G|---------2-------2--------------2------------3-----------------------------|
D|---------2-------4--------------2------------4-----------------------------|
A|---------------------------------------------------------------------------|
E|---------------------------------------------------------------------------|
   And she only reveals what she wants you to see

e|---------------------------------------------------------------------------|
B|------3-------------3--------------0---------2-----------------------------|
G|------4-------------0--------------0---------2-----------------------------|
D|------4-------------2--------------0---------2-----------------------------|
A|---------------------------------------------------------------------------|
E|---------------------------------------------------------------------------|
   She hides like a child, But she's always a woman to

e|-------2-----------3-----------2-----------0-----------2-----------0------|
B|-----3---3-------3---3-------3---3-------2---2-------3---3-------2---2----|
G|---2-------2---2-------2---2-------2---2-------2---2-------2---2-------2--|
D|-0-----------0-----------0-----------------------0------------------------|
A|-------------------------------------0-----------------------0------------|
E|--------------------------------------------------------------------------|
   me ----------------------------------------------------------------------|       She 
can lead you to love She can take you or

e|-------2-----------2-----------------------3-----------3-----------3-------|
B|-----3---3-------3---3-------------------0---0-------0---0-------0---0-----|
G|---2-------2---2-------2---2---2---2---0-------0---0-------0---0-------0---|
D|-0-----------0-----------0---2---4---5-----------4-----------2-------------|
A|---------------------------------------------------------------------------|
E|---------------------------------------------------------------------------|
  leave you       She can ask for the truth,But[*]never    believe you

e|-------3-----------------------2-------------------------------------------|
B|-----0---0---------2---------3---3---------2-----------2-----------2-------|
G|---0-------0-----2---2-----2-------2-----2---2-------3---3-------3---3-----|
D|-5-------------2-------2-0-------------2-------2---4-------4---4-------4---|
A|-------------0-----------------------0-----------------------4-------------|
E|-------------------------------------------------2-------------------------|
   And she'll take whatyougive her as long asits free                Yeah, she

e|---------------------------------------------------------------------------|
B|-------3-----------3-----------0-----------2-------------------------------|
G|-----4---4-------4---4-------0---0-------2---2-----------------------------|
D|---4-------4---4-------4---0-------0---2-------2---------------------------|
A|-2-----------0-----------------------0-------------------------------------|
E|-------------------------3-------------------------------------------------|
  steals like a thief  [*] always a   woman to

e|-------2-----------3-----------2-----------2---------------------------------|
B|-----3---3-------3---2-------3---3-------3---3---------3-----------3---------|
G|---2-------2---2-------2---2-------2---2-------2-----4---4-------4---4-------|
D|-0-----------0-----------0-------------------------4-------4---4-------4-----|
A|-------------------------------------4-----------2-----------0---------------|
E|-----------------------------------------------------------------------------|
  me -----------------|                            Oooooh ---------------------|

e|---------------------------------------------------------------------------|
B|-------3-----------3-----------2-----------2-----------2-----------2-------|
G|-----4---4-------4---4-------2---2-------2---2-------2---2-------2---2-----|
D|---4-------4---4-------4---2-------2---2-------2---2-------2---2-------2---|
A|-------------------------0-----------------------------------4-------------|
E|-4-----------0-----------------------4-----------2-------------------------|
     she takes care of herself            She can wait if she wants

e|-------------------------------------------------------2-----------3-------|
B|-------0-----------0-----------0-----------0---------3---3-------3---3-----|
G|-----0---0-------0---0-------0---0-------0---0-----2-------2---2-------2---|
D|---0-------0---0-------0---0-------0---0-------0-0-----------0-------------|
A|-------------------------------------0-------------------------------------|
E|-3-----------2-----------0-------------------------------------------------|
                              She's ahead of her time

e|-------2-----------2-----------2-----------1-----------1-----------1-----------1-------|
B|-----3---3-------3---3-------3---2-------1---1-------1---1-------1---1-------1---1-----|
G|---2-------2---2-------2---2-------2---2-------2---2-------2---2-------2---2-------2---|
D|-0-----------0-----------------------0-------------------------------------------------|
A|-------------------------0-----------------------3-----------2-------------------------|
E|-------------------------------------------------------------------------3-------------|
                                       Ooooooooh                           and she never 
gives out

e|---------------------------------------------------------------------------|
B|-------1-----------1-----------1-----------1-----------3-----------3-------|
G|-----0---0-------0---0-------0---0-------0---0-------3---3-------3---3-----|
D|---2-------2---2-------2---2-------2---2-------2---3-------3---3-------3---|
A|-3-----------2-----------0-----------------------1-----------0-------------|
E|-------------------------------------3-------------------------------------|
  gives out                   And she never gives in

e|---------------------------------------------------------------------------|
B|-------3-----------3-----------2-----------2-----------2-----------2-------|
G|-----3---3-------3---3-------2---2-------2---2-------2---2-------2---2-----|
D|---3-------3---3-------3---2-------2---4-------4---5-------5---4-------4---|
A|-------------------------0-----------0-----------0-----------0-------------|
E|-4-----------0-------------------------------------------------------------|
                She just changes her mind


this is the whole first stanza and the chorus. as far as i hear it, the pattern doesn't
differ during the bridge or the other stanzas, so i only put the text of the first
stanza and the chorus under the tab. you will have to figure out the timing of the 
others for yourself, but that wont be hard to do when you can play it.
Tap to rate this tab
 
# A B C D E F G H I J K L M N O P Q R S T U V W X Y Z