Song name
# A B C D E F G H I J K L M N O P Q R S T U V W X Y Z

Billy Joel - We Didnt Start The Fire tab

-------------------------------------------------------------------------------
                       We Didn't Start the Fire - Billy Joel
-------------------------------------------------------------------------------

Tabbed by: Challenger440

Tuning: Standard (EADGBe)


Intro/Chorus lead

e|-----------------------------------------------------------------|
B|-------------------------12----------12----------------12--------|
G|-------------12-12-12h14-------12-14----14-12----12-14----14-12--|
D|-12-12-12-14----------------14----------------14-----------------|
A|-----------------------------------------------------------------|
E|-----------------------------------------------------------------|


Verse

    G              D              Em              C
e|------3------3-------2------2-------0-------0-------0------0--|
B|------3------3-------3------3-------0-------0-------1------1--|
G|------0------0-------2------2-------0-------0-------0------0--|
D|------0------0---0-0-0--0-0-0-------2-------2-------2------2--|
A|------------------------------------------------3-3----3-3----|
E|--3-3----3-3--------------------0-0----0-0--------------------|


Bridge

   C               A               Em             D
e|------0------0-------0-------0-------0------0-------2------2--|
B|------1------1-------2-------2-------0------0-------3------3--|
G|------0------0-------2-------2-------0------0-------2------2--|
D|------2------2-------2-------2-------2------2---0-0-0--0-0-0--|
A|--3-3----3-3-----0-0-----0-0----------------------------------|
E|---------------------------------0-0----0-0-------------------|


Fill

E|--12-0-0---10-0-0---8-0-0---7-0-0-8--|
B|-------------------------------------|
G|-------------------------------------|
D|-------------------------------------|
A|-------------------------------------|
E|-------------------------------------|

Order:

Intro/Chorus X 4
Verse X 2
Chorus X 1
Verse X 2
Chorus X 2
Verse X 4
Chorus X 2
Bridge X 2
Fill X 2
Verse X 2
Chorus X 2
Verse X 4
Chorus X 2
Verse X 4
Chorus (until end)

For "Chorus," lead plays intro and G2 plays the "verse" riff.
Tap to rate this tab
 
# A B C D E F G H I J K L M N O P Q R S T U V W X Y Z