Song name
# A B C D E F G H I J K L M N O P Q R S T U V W X Y Z

Billy Joel - Streetlife Serenader tab

Hey guys!

To play this tab and make it sound good at the same time, try using overdrive with 
your Gain at around 5-6.5 and add in a slight amount of delay.

The tuning is Standard i.e. EADGBe 

|------12~-12~---------------------------------|
|-14br---------14---12\10-10~~~--------10/12~~-|
|-------------------------------14-12----------|
|----------------------------------------------|
|----------------------------------------------|
|----------------------------------------------|


|----------------------------------|
|-12~-10-12--12b(13)r---12~-10~~~--|
|----------------------------------|
|----------------------------------|
|----------------------------------|
|----------------------------------|


|-14-12-------------------------------|
|--------14--12b(13)r--10--12~~-10~~~-|
|-------------------------------------|
|-------------------------------------|
|-------------------------------------|
|-------------------------------------|


|-----12--17b(18)r--17-17~~-17~~~-17-15-12---------------------------|
|-14b---------------------------------------15b(16)r--13-15-13-15~~~-|
|--------------------------------------------------------------------|
|--------------------------------------------------------------------|
|--------------------------------------------------------------------|
|--------------------------------------------------------------------|


|---------------------------------------------|
|-12~-10-12~~--12b(13)r--12--10~~~~~~~~~~~~~~-|
|---------------------------------------------|
|---------------------------------------------|
|---------------------------------------------|
|---------------------------------------------|

I play this by ear.
Pretty simple, Just listen to the song to get the timing right.
Enjoy!
Tap to rate this tab
# A B C D E F G H I J K L M N O P Q R S T U V W X Y Z