Song name
# A B C D E F G H I J K L M N O P Q R S T U V W X Y Z

Billy Joel - Big Shot tab

Since no one has tabbed this out I'm adding it. Enjoy.

E|------------------------------|-----------------------|------------------------------|
B|------------------------------|-----------------------|------------------------------|
G|-7----7-------7---------------|-----------------------|-7----7-------7---------------|
D|-7----7---5---7---5---2---0---|-----5-------5---------|-7----7---5---7---5---2---0---|
A|------------------------------|-----5-------5---------|------------------------------|
E|------------------------------|-----------------------|------------------------------|


E|---------------------------------|------------------------------|-----------------------|
B|---------------------------------|------------------------------|-----------------------|
G|---------------------------------|-7----7-------7---------------|-------------4---------|
D|-----5---------------5-----------|-7----7---5---7---5---2---0---|-----3---4---4---------|
A|-----5---------------5-----------|------------------------------|-----4---5---5---------|
E|---------------------------------|------------------------------|-----------------------|


E|------------------------|-------------|
B|------------------------|-------------|
G|------------------------|-------------|
D|-5-----3-------3----3---|-5-----------|
A|-3-----3-------3----3---|-3-----------|
E|------------------------|-------------|
Tap to rate this tab
# A B C D E F G H I J K L M N O P Q R S T U V W X Y Z