Song name
# A B C D E F G H I J K L M N O P Q R S T U V W X Y Z

Billy Joel - Somebody To Lean On tab

Help us improve GuitareTab! Take a short survey!
                              BILLY JOEL
                        SOMEBODY TO LEAN ON


i was looking for a tab for this but i couldnt find one so i just made one myself


standard tuning

-----------------------------------|
-----------------------------------|
--7---7-9-11-12--12-11-9-7---------|
--7---7-9-11-12--12-11-9-7---------|
--5---5-7-9--10--10-9--7-5---------|
-----------------------------------|

then it goes like this
----------------------|
----------------------|
---7-9-11-----7-------|
---7-9-11-11--7-------|
---5-7-9--11--5-------|
----------9-----------|

thats it
peace
Related for Somebody To Lean On tab