Song name
# A B C D E F G H I J K L M N O P Q R S T U V W X Y Z

Billy Mack - Christmas Is All Around tab

Well.. This is solo from "christmas is all around" (Love Actually movie). Really
good soundtrack ;)
Based on my ears and one solo cover. It was very helpful.

Standard: eBGDAE
e-mail: pietruszka_96@o2.pl
(solo cover - http://www.youtube.com/watch?v=L-6nqbutmA0 )
--------------------------------------------------

e| -------------------15----------------------15-17-17b--17-15------|
B| ----------13-15/17----18v----------------15----------------------|
G| ----12-14----------------17b--17b-15-17--------------------------|
D| -/14--------------------------------------------------------17v--|
A| -----------------------------------------------------------------|
E| -----------------------------------------------------------------|


e| ---------------------18--------------------------------18-18b----|
B| ----------16--18b-18b--18b--18b-17-----------------18------------|
G| --------15--15--------------------17-------------15--15----------|
D| -/15-17-----------------------------17v--------15----------------|
A| -----------------------------------------------------------------|
E| --------------------------------------------/17------------------|


e| -15-18-15------------------------------|
B| ---------18-15---18--------------------|
G| --------------17b--17b-15--------------|
D| -------------------------17-15---------|
A| -------------------------------17v-----|
E| ---------------------------------------|

        (not sure this part ;/ )
e| ------------------------------------------------------------|
B| -----------------------------------------15-15-18b-15-------|
G| ----------------------------------16v--17------------17v----|
D| -------------------------15--15-17--------------------------|
A| ------14--14-15-14--15-17--17-------------------------------|
E| -15-15--15--------------------------------------------------|

e| ----13/12----------18--18-18b-------|
B| -15b-----13v-----15--15-------------|
G| --------------17b-------------------|
D| ------------------------------------|
A| ------------------------------------|
E| ------------------------------------|


Well... i think that it. Sorry for mistakes. ;/
----------------------
/ - slide
b - band
v - vibrato
Tap to rate this tab
# A B C D E F G H I J K L M N O P Q R S T U V W X Y Z