Guitaretab - guitar tabs
Song name
# A B C D E F G H I J K L M N O P Q R S T U V W X Y Z

Billy Squier - Lonely Is The Night tab

^ - bend (i put the type of bend in parenthesis next to the note)
/ - slide
x - palm mute
~ - vibrato

   *notes that are not separated by a dash (-) are hammer-ons/pull-offs

This solo is from the E minor scale with a little blues scale at the end.

----------------------------------------------------------------------------|
-15--------15-15---------\--------------------------------------------------|
-14^(whole)---14^(whole)-\--------------------------------------------------|
---------------------------020202020202020---------------------5^(1/4)------|
-------------------------------------------5^(1/4)------5x-------------7----|
----------------------------------------------------7x------7px-------------|
[ Tab from: http://www.guitaretab.com/b/billy-squier/182741.html ]
----------------------------------------------------------------------------|
-------------------------------------------------------------17~-------17~--|
----------------------------7-9-9^(1 1/2)99^(1 1/2)------/16~---16-16~------|
-------5^(1/4)---------5-7/9------------------------------------------------|
---5x----------7----57------------------------------------------------------|
-7x---7x--------------------------------------------------------------------|

-------------------------------------------------------------------19-19-18-|
----19~----17~----------17~------19^(2)--15-17----------17-20^(2)-----------|
--16~---16~-----16~-16~------16~---------------16~~--16---------------------|
----------------------------------------------------------------------------|
----------------------------------------------------------------------------|
----------------------------------------------------------------------------|

-19~--20^(1 1/2)-19-18-17-19-18-15-18-17-15---------|
--------------------------------------------15-15/--|
----------------------------------------------------|
----------------------------------------------------|
----------------------------------------------------|
----------------------------------------------------|


here is a link to a great tab for the other parts of the song:
http://www.ultimate-guitar.com/tabs/b/billy_squier/lonely_is_the_night_ver3_tab.htm
Related for Lonely Is The Night tab