Billy Squier - Nobody Knows tab

-----------------------------------------------------------------------------
			     Nobody Knows - Billy Squier
-----------------------------------------------------------------------------


Tuning:Standard

   D            Dmaj7          D7              B6
e|--------2---------------2--------------2--------------2----------------|
B|-----3-----3---------2-----2--------1-----1--------4-----4-------------|
G|---2--2--2---2-----2--2--2---2----2--2--2---2-------2--2---2-----------|
D|-0--------------0--------------0----------------4----------------------|
A|----------------------------------------------2------------------------|
E|-----------------------------------------------------------------------|
   Em7 var.      C              Em      A6     Em
e|--------3--------------3-----------------------------------------------|
B|-----0-----0--------1------1------0-------2-------0-----2--------------|
G|------0--0---0-------0--0---0--------------0-----0-----0---------------|
D|---2--------------2--------------2------2-------2-----2----------------|
A|-2--------------3--------------2----2-0-------2-----0------------------|
E|-----------------------------------------------------------------------|

Thanks for choosing my tab, Im pretty sure its all right except for the Em7 is a little 
and so is the ending.
Tap to rate this tab
 
# A B C D E F G H I J K L M N O P Q R S T U V W X Y Z