Guitaretab - guitar tabs
Song name
# A B C D E F G H I J K L M N O P Q R S T U V W X Y Z

Billy Talent - Turn You Back tab

*TURN YOUR BACK*
Tabbed By: Mike aka Slash

INTRO

E----------------------------------------------------------------------------------------|
B----------------------------------------------------------------------------------------|
G----------------------------------------------------------------------------------------|
D-9--9-9--9-9----------14--14-14--14-14--12-11-7--4--4-4--7--2--2-2----------------------|
A-7--7-7--7-7--10-7-5--12--12-12--12-12--10-9--5--2--2-2--5--0--0-0---5--9--7--4--5--2---|
D---------------------------------------------------------------------5--9--7--4--5--2---|

VERSE

					      And When The Clock Strikes 12...
E------------------------------------------------------------------------------------------|
B------------------------------------------------------------------------------------------|
G------------------------------------------------------------------------------------------|
D------------------------------------------------------------------------------------------|
A-2-2--2-2--0--2-2--2-2--0--2-2--2-2--0--2-2--2-2--0---------2~~~~~~~~~~~~~~~~~~~~~~~~~~~--|
D-2-2--2-2--0--2-2--2-2--0--2-2--2-2--0--2-2--2-2--0---------2~~~~~~~~~~~~~~~~~~~~~~~~~~~--|


   Tell Me Where You Gonna Be?        Cleanin' Up The Mess We Made
E-----------------------------------------------------------------|
B-----------------------------------------------------------------|
G-----------------------------------------------------------------|
D-----------------------------------------------------------------|
A~~~~~~~~~~~~9~~~~~~~~~~~~~~~~~~~~~~~~~~~9~~~~~~~~~~~~~~~~~~~~~~~~
D~~~~~~~~~~~~9~~~~~~~~~~~~~~~~~~~~~~~~~~~9~~~~~~~~~~~~~~~~~~~~~~~~

 Or Watchin' Your TV?	And If You Have To Ask
E-----------------------------------------------------------------|
B-----------------------------------------------------------------|
G-----------------------------------------------------------------|
D-----------------------------------------------------------------|
A~~~~~2~~~~~~~~~~~~~~~~~~~~~~~~~~~~~~2~~~~~~~~~~~~~~~~~~~~~~~~~~~~
D~~~~~2~~~~~~~~~~~~~~~~~~~~~~~~~~~~~~2~~~~~~~~~~~~~~~~~~~~~~~~~~~~

    Then You Dont Have A Clue    Theres Snow In Arizona
E-----------------------------------------------------------------|
B-----------------------------------------------------------------|
G-----------------------------------------------------------------|
D-----------------------------------------------------------------|
A~~~~~~~~~9~~~~~~~~~~~~~~~~~~~~~~~~~~~~~~~9~~~~~~~~~~~~~~~~~~~~~~~
D~~~~~~~~~9~~~~~~~~~~~~~~~~~~~~~~~~~~~~~~~9~~~~~~~~~~~~~~~~~~~~~~~

[ Tab from: http://www.guitaretab.com/b/billy-talent/110235.html ]
  While Theres Bombing In Beirut
E---------------------------------|
B---------------------------------|
G---------------------------------|
D---------------------------------|
A~~~~~~~~~~~~~~~~~2~~~~~~~~~~~~~~~
D~~~~~~~~~~~~~~~~~2~~~~~~~~~~~~~~~

Bridge

  I Hope Someday... When Im Dead And Gone...
E--------------------------------------------------------|
B--------------------------------------------------------|
G--------------------------------------------------------|
D--------------------------------------------------------|
A------------7~~~~~~~~~~~~~~~~~~~~~~~~2~~~~~~~~~~~~~~~~~-|
D------------7~~~~~~~~~~~~~~~~~~~~~~~~2~~~~~~~~~~~~~~~~~-|

We Learn To Right...Everything Thats Wrong
E--------------------------------------------------------|
B--------------------------------------------------------|
G--------------------------------------------------------|
D--------------------------------------------------------|
A------------7~~~~~~~~~~~~~~~~~~~~~~~~2~~~~~~~~~~~~~~~~~-|
D------------7~~~~~~~~~~~~~~~~~~~~~~~~2~~~~~~~~~~~~~~~~~-|

These Loving Hands...Turn Sick To Strong
E-----------------------------------------------------|
B-----------------------------------------------------|
G-----------------------------------------------------|
D-----------------------------------------------------|
A--------------7~~~~~~~~~~~~~~~~~~~~~2~~~~~~~~~~~~~~~-|
D--------------7~~~~~~~~~~~~~~~~~~~~~2~~~~~~~~~~~~~~~-|

Our Time Will Tell...  If Life Goes On,on,on,on,on
E-----------------------------------------------------|
B-----------------------------------------------------|
G-----------------------------------------------------|
D-----------------------------------------------------|
A--------------7~~~~~~~~~~~~~~~~~~~~~2~~2~~2~~2~~2~~~-|
D--------------7~~~~~~~~~~~~~~~~~~~~~2~~2~~2~~2~~2~~~-|


      When The Storm Hits Your Front Door
E----------------------------------------------------|
B----------------------------------------------------|
G----------------------------------------------------|
D----------------------------------------------------|
A---2~~~~~~~~~~~~~~~~~~~~~~~~~~~~~~~~~~~~~~~~~~~~~~~~
D---2~~~~~~~~~~~~~~~~~~~~~~~~~~~~~~~~~~~~~~~~~~~~~~~~

      With A Roar You Cant Ignore
E----------------------------------------------------|
B----------------------------------------------------|
G----------------------------------------------------|
D----------------------------------------------------|
A---7~~~~~~~~~~~~~~~~~~~~~~~~~~~~~~~~~~~~~~~~~~~~~~~~
D---7~~~~~~~~~~~~~~~~~~~~~~~~~~~~~~~~~~~~~~~~~~~~~~~~

  Ya Run, Run Away!  But Theres No Place To Hide Mate!
E------------------------------------------------------|
B------------------------------------------------------|
G------------------------------------------------------|
D------------------------------------------------------|
A-----9----9---12-----------5----9---7----4--5----2----|
D-----9----9---12-----------5----9---7----4--5----2----|

The rest is pretty much the same
Havent tried to solo yet
Related for Turn You Back tab
Advertisement will be closed in 10 seconds