Song name
# A B C D E F G H I J K L M N O P Q R S T U V W X Y Z

Billy Talent - Turn Your Back tab

Artist: Billy Talent (ft. Anti-Flag)
Song: Turn Your Back
Album: upcoming 3rd Billy Talent album (expected release March 2009)
Tabbed by Alaa Ali (Gu!TaR PRo)

Tuning: Drop D (D-A-D-G-B-e)

The timings mentioned here are from the studio version, and NOT the .mp3 
version that starts with a dude saying "Split release, with Billy Talent, 
from Canada....".
I know it's not 100% correct, but it's pretty close to what Ian D'Sa plays. 
Before saying "this doesn't sound right", give the song a close listen again =)..
I've already finished a guitar pro version with all the instruments in 
it (minus the vocals). For anything regarding the tab, email to 
"specialalaa@hotmail.com".

LEGEND:
~ let ring

INTRO (0:00)
e|--|---------------|---------------|2---2---0---0--|----------------|
B|--|---------------|7--77-x-7-8-7--|3---3---2---2--|----------------|
G|--|---------------|x--xx-x-x-x-x--|4---4-0-2---2-0|----------------|
D|22|2---2-0-2-5-2-0|7--77-7-7-7-7-0|4---4-0-2---2-0|----------2-2---|
A|22|2---2-0-2-5-2-0|5--55-0-5-5-5-0|2---2-0-0---0-0|--2-0-----2-2---|
D|22|2---2-0-2-5-2-0|---------------|---------------|5-----4-5-2-2-00|

e|------------------------------|
B|------------------------------|
G|------------------------------|
D|2--22-0-2--22-0-2--22-0-2-22-0|
A|2--22---2--22---2--22---2-22--|
D|2--22---2--22---2--22---2-22--|

VERSE (0:11)
e|---------------|-------------|2~------------|--------------|
B|---------------|3~-----------|3~------------|--------------|
G|---------------|4~-----------|4~------------|--------------|
D|2--22-0-2------|4~-----------|4~------------|2--22-0-2-22-0| x2
A|2--22---2-----0|2~-----------|2~------------|2--22---2-22--|
D|2--22---2-22-5-|-------------|--------55-5-4|2--22---2-22--|


PRE-CHORUS (0:25)
e|--------------------------|-7--77-7-7--77---|
B|-10--10-10-9-10--xx-12-xx-|-8--88-7-8--88---|
G|-9---9--9--7-9---xx-11-xx-|-9--99-7-9--99---|	 <-------
D|-7---7--7--5-7---xx-9--xx-|---------------0-|		|
A|--------------------------|---------------0-|		|
D|--------------------------|-----------------|		
						        x2
----------------------|----------------|		
-10--10-10-----xx-7---|-5--55-5-5-55-5-|		|
-9---9--9--9---xx-7---|-5--55-5-5-55-5-|		|
-7---7--7--0-9-xx-0-0-|-5--55-5-5-55-5-|  <-------------
-----------0-9------0-|-3--33-3-3-33-3-|
-------------9--------|----------------|

e|---------------|
B|5-55-5-5-55----|
G|5-55-5-5-55----|
D|5-55-5-5-55----|
A|3-33-3-3-33-00-|
D|------------00-|

CHORUS (0:41)
e|-------------|------------|2------0------|----------------|
B|5~--------5-5|7~----------|3------2------|----------------|
G|4~--------4-4|7~----------|4------2------|----------------|
D|2~--------2-2|0~----------|4------2------|9---7---2-2-2---|
A|2~--------2-2|0~----------|2------0------|5---4---2-2-2-22|
D|2~--------2-2|0~----------|--------------|5---4---2-2-2-22|

e|-------------|------------|2------0------|----------------|
B|5~-----------|7~----------|3------2------|--------5-5-5---|
G|4~--------4-4|7~----------|4------2------|----------------|
D|2~--------2-2|0~----------|4------2------|9---7---5-5-5---|
A|2~--------2-2|0~----------|2------0------|5---4---3-3-3-00|
D|2~--------2-2|0~----------|--------------|5---4---------00|

e|------------------------------|
B|------------------------------|
G|------------------------------|
D|2--22-0-2--22-0-2--22-0-2-22-0|
A|2--22---2--22---2--22---2-22--|
D|2--22---2--22---2--22---2-22--|

VERSE (0:59)
e|---------------|-------------|2~------------|--------------|
B|---------------|3~-----------|3~------------|--------------|
G|---------------|4~-----------|4~------------|--------------|
D|2--22-0-2------|4~-----------|4~------------|2--22-0-2-22-0| x2
A|2--22---2-----0|2~-----------|2~------------|2--22---2-22--|
D|2--22---2-22-5-|-------------|--------55-5-4|2--22---2-22--|


PRE-CHORUS(1:14)
e|--------------------------|-7--77-7-7--77---|
B|-10--10-10-9-10--xx-12-xx-|-8--88-7-8--88---|
G|-9---9--9--7-9---xx-11-xx-|-9--99-7-9--99---|	  <------
D|-7---7--7--5-7---xx-9--xx-|---------------0-|		|
A|--------------------------|---------------0-|		|
D|--------------------------|-----------------|		
						        x2
----------------------|----------------|		
-10--10-10-----xx-7---|-5--55-5-5-55-5-|		|
-9---9--9--9---xx-7---|-5--55-5-5-55-5-|		|
-7---7--7--0-9-xx-0-0-|-5--55-5-5-55-5-|   <------------
-----------0-9------0-|-3--33-3-3-33-3-|
-------------9--------|----------------|

e|---------------|
B|5-55-5-5-55----|
G|5-55-5-5-55----|
D|5-55-5-5-55----|
A|3-33-3-3-33-00-|
D|------------00-|

CHORUS (1:30)
e|---------------|---------------|2-------0------|----------------|
B|5~----------5-5|7~-------------|3-------2------|----------------|
G|4~----------4-4|7~-------------|4-------2------|----------------|
D|2~----------2-2|0~-------------|4-------2------|9---7---2-2-2---| x2
A|2~----------2-2|0~-------------|2-------0------|5---4---2-2-2-22|
D|2~----------2-2|0~-------------|---------------|5---4---2-2-2-22|

(1:45)
e|---------------|---------------|2---2---0---0--|----------------|
B|---------------|7--77-x-7-8-7--|3---3---2---2--|----------------|
G|---------------|x--xx-x-x-x-x--|4---4-0-2---2-0|----------------|
D|2---2-0-2-5-2-0|7--77-7-7-7-7-0|4---4-0-2---2-0|9---7---2-2-2---|
A|2---2-0-2-5-2-0|5--55-0-5-5-5-0|2---2-0-0---0-0|5---4---2-2-2-22|
D|2---2-0-2-5-2-0|---------------|---------------|5---4---2-2-2-22|

e|---------------|---------------|2---2---0---0--|----------------|
B|---------------|7--77-x-7-8-7--|3---3---2---2--|--------5-5-5---|
G|---------------|x--xx-x-x-x-x--|4---4-0-2---2-0|----------------|
D|2---2-0-2-5-2-0|7--77-7-7-7-7-0|4---4-0-2---2-0|9---7---5-5-5---|
A|2---2-0-2-5-2-0|5--55-0-5-5-5-0|2---2-0-0---0-0|5---4---3-3-3---|
D|2---2-0-2-5-2-0|---------------|---------------|5---4---------00|


BRIDGE (1:59)
e|--7-7-7---10-10-10--10-10-|--7-7-7---7-7-7---7-7-|
B|--8-8-8---8--8--8---8--8--|--7-7-7---7-7-7---7-7-|
G|--9-9-9---9--9--9---9--9--|--7-7-7---7-7-7---7-7-|
D|--------------------------|----------------------|
A|--------------------------|----------------------|
D|2-------------------------|----------------------|

--5-5-5---5-5-5---5-5-|--3-3-3---3-3-3-3-3-3----|
--5-5-5---5-5-5---5-5-|--3-3-3---3-3-3-3-3-3----|
--5-5-5---5-5-5---5-5-|--4-4-4---4-4-4-4-4-4----| x4
----------------------|-------------------------|
----------------------|-------------------------|
----------------------|----------------------00-|

(2:28)
e|---10-10-10~---10~---10--10~--|--7-7-7~---7~---7--7~---|
B|---8--8--8~----8~----8---8~---|--7-7-7~---7~---7--7~---|
G|---9--9--9~----9~----9---9~---|--7-7-7~---7~---7--7~---|
D|------------------------------|--0-0-0~---0~---0--0~---|
A|2-----------------------------|------------------------|
D|2-----------------------------|------------------------|

--5-5-5~---5~---5--5~---|--3-3-3~---3~---3--3~------|
--5-5-5~---5~---5--5~---|--3-3-3~---3~---3--3~------|
--5-5-5~---5~---5--5~---|--4-4-4~---4~---4--4~------| x2
------------------------|---------------------------|
------------------------|---------------------------|
------------------------|------------------------00-|

(2:42)
  "No waay       waaay          no way no way!"
e|5~-----5~-----|5~-----5~-----|5-5-5-5-5-5-5-5|5-5-5-5-5-5-5----|
B|2~-----2~-----|2~-----2~-----|2-2-2-2-2-2-2-2|2-2-2-2-2-2-2----|
G|2~-----2~-----|2~-----2~-----|2-2-2-2-2-2-2-2|2-2-2-2-2-2-2----|
D|2~-----2~-----|2~-----2~-----|2-2-2-2-2-2-2-2|2-2-2-2-2-2-2----|
A|0~-----0~-----|0~-----0~-----|0-0-0-0-0-0-0-0|0-0-0-0-0-0-0-00-|
D|--------------|--------------|---------------|--------------00-|


INTERLUDE(2:49)
 "When a storm hits your front door"
e|-----------|-----------|-----------|-----------|
B|-----------|-----------|-----------|-----------|
G|-----------|-----------|-----------|---------44|
D|-2--(rest)-|-----------|-----------|---------22|
A|-2---------|-----------|-----------|---------22|
D|-2---------|-----------|-----------|-----------|


CHORUS (2:57)
e|---------------|---------------|2-------0------|----------------|
B|5~----------5-5|7~-------------|3-------2------|----------------|
G|4~----------4-4|7~-------------|4-------2------|----------------|
D|2~----------2-2|0~-------------|4-------2------|9---7---2-2-2---|
A|2~----------2-2|0~-------------|2-------0------|5---4---2-2-2-22|
D|2~----------2-2|0~-------------|---------------|5---4---2-2-2-22|

OUTRO (3:04)
e|---------------|---------------|2---2---0---0--|----------------|
B|---------------|7--77-x-7-8-7--|3---3---2---2--|----------------|
G|---------------|x--xx-x-x-x-x--|4---4-0-2---2-0|----------------|
D|2---2-0-2-5-2-0|7--77-7-7-7-7-0|4---4-0-2---2-0|9---7---2-2-2---|
A|2---2-0-2-5-2-0|5--55-0-5-5-5-0|2---2-0-0---0-0|5---4---2-2-2-22|
D|2---2-0-2-5-2-0|---------------|---------------|5---4---2-2-2-22|

e|---------------|---------------|2---2---0---0--|----------------|
B|---------------|7--77-x-7-8-7--|3---3---2---2--|----------------|
G|---------------|x--xx-x-x-x-x--|4---4-0-2---2-0|----------------|
D|2---2-0-2-5-2-0|7--77-7-7-7-7-0|4---4-0-2---2-0|----------2-2---|
A|2---2-0-2-5-2-0|5--55-0-5-5-5-0|2---2-0-0---0-0|--2-0-----2-2---|
D|2---2-0-2-5-2-0|---------------|---------------|5-----4-5-2-2---|


That's it..
Tap to rate this tab
# A B C D E F G H I J K L M N O P Q R S T U V W X Y Z