Song name
# A B C D E F G H I J K L M N O P Q R S T U V W X Y Z

Billy Talent - Waiting Room tab

Tabbed by:Tyler mancheese

email:rock-rulz14@hotmail.com



This song is covered by Billy Talent, from Fugazi at the Pepsi centre. here the tab.

bass intro first then


GUITAR INTRO
|---------|-------------------------------------------------|
|---------|-------------------------------------------------|
|---------|-------------------------------------------------|
|---------|---------------------------------------(x-4)-----|
|--4---4--|----4-4-4-4-4-4-4-4--4-4-4-4-4-4-4-6-------------|
|--2---2--|----2-2-2-2-2-2-2-2--4-4-4-4-4-4-4-4-------------|

play that twice except the first part.



VERSE
|--------------------------------------------|
|--------------------------------------------|
|--------------------------------------------|
|--------------------------------------------|
|----4-4-4-4-4-4-4-4--4-4-4-4-4-4-4-6--------|
|----2-2-2-2-2-2-2-2--4-4-4-4-4-4-4-4--------|


CHORUS
|--------------------------------------------------------|
|--------------------------------------------------------|
|--6-6-6-6-6-----------------4-4-4-4-4-------------------|
|--6-6-6-6-6----2-2-2-2-2----4-4-4-4-4-----5-5-5-5-5-----|
|--4-4-4-4-4----2-2-2-2-2----2-2-2-2-2-----5-5-5-5-5-----|
|---------------0-0-0-0-0------------------5-5-5-5-5-----|

INTRELUDE

|--------------------------------------------|
|--------------------------------------------|
|--------------------------------------------|
|--------------------------------------(X-2)-|
|----4-4-4-4-4-4-4-4--4-4-4-4-4-4-4-6--------|
|----2-2-2-2-2-2-2-2--4-4-4-4-4-4-4-4--------|


VERSE
|--------------------------------------------|
|--------------------------------------------|
|--------------------------------------------|
|--------------------------------------------|
|----4-4-4-4-4-4-4-4--4-4-4-4-4-4-4-6--------|
|----2-2-2-2-2-2-2-2--4-4-4-4-4-4-4-4--------|



Tap to rate this tab
# A B C D E F G H I J K L M N O P Q R S T U V W X Y Z