Song name
# A B C D E F G H I J K L M N O P Q R S T U V W X Y Z

Billy Talent - Rusted From The Rain tab

-------------------------------------------------------------------------------
			     RUSTED FROM THE RAIN - Billy Talent
-------------------------------------------------------------------------------
Tabbed by: aRAGman
Email: michaelhelmstedt@hotmail.com

Tuning: Drop D (DADGBe)

Verse 1:
e|--0----0-----0------------------|
B|-0-----0-----0------------------|
G|------6-----4-------------------|
D|2--2-7--7--5--5-0-2-4--0---x3---|
A|--------------------------------|
D|--------------------------------|

e|--0---0---0-----------------|
B|--0---0---0-----------------|
G|--0---0---0-----------------|
D|-2-2-2-2-4-4----------------|
A|3---3---5---5---------------|
D|----------------------------|

pre-verse/interlude:
e|--0----0-----0-----------------|
B|-0-----0-----0-----------------|
G|------6-----4------------------|
D|2--2-7--7--5--5-0-2-4-0---x2---|
A|-------------------------------|
D|-------------------------------|

Verse
e|------------------------0----0----0--------------|
B|5---------555-------55-0-----0----0--------------|
G|4---------444-------44------6----4---------------|
D|2---------222-------222--2-7--7-5--5-0-2-4-0-----|
A|-------------------------------------------------|
D|-------------------------------------------------|

e|--0-----------0-------------0------------------------------|
B|--0-----------0-------------0------------5-55555555555555--|
G|--0---4b5r4---0----4b5r4----0---4b5r4----4-44444444444444--|
D|-2-2-2-------4-4-----------2-2-2---------2-22222222222222--|
A|3---3-------5---5---5-----3---3-----------(^  14 times  ^--|
D|-----------------------------------------------------------|
(4b5r4 means hit 4th fret, bend up semitone (same note as 5th), bend back to 4th)

Chorus
e|0-0-----------3-3---------2---------------------------------------------------|
B|0-0-----------3-3---3-3-3-2-------------5--------5----------------------------|
G|--------------------2-2-2-------------4-x16----4-x16--------------------------|
D|2-2---7-5-7-9-5-5---0-0-0-4---------2--------3--------------------------------|
A|2-2---7-5-7-9-5-5---0-0-0-4---------------------------------------------------|
D|2-2---7-5-7-9-5-5---0-0-0-4-----x3--------------------------------------------|

pre-verse/interlude:
e|--0----0-----0--------------|
B|-0-----0-----0--------------|
G|------6-----4---------------|
D|2--2-7--7--5--5-0240---x2---|
A|----------------------------|
D|----------------------------|
Verse
e|------------------------0----0----0------------|
B|5---------555-------55-0-----0----0------------|
G|4---------444-------44------6----4-------------|
D|2---------222-------222--2-7--7-5--5-0-2-4-0---|
A|-----------------------------------------------|
D|-----------------------------------------------|

e|--0-----------0-------------0------------------------------|
B|--0-----------0-------------0------------5-55555555555555--|
G|--0---4b5r4---0----4b5r4----0---4b5r4----4-44444444444444--|
D|-2-2-2-------4-4-----------2-2-2---------2-22222222222222--|
A|3---3-------5---5---5-----3---3-----------(^  14 times  ^--|
D|-----------------------------------------------------------|

Chorus
e|0-0-----------3-3---------2---------------------------------------------------|
B|0-0-----------3-3---3-3-3-2-------------5--------5-------5------5-------------|
G|--------------------2-2-2--------------4-x16----4-x16---4-x16--4--x10---------|
D|2-2---7-5-7-9-5-5---0-0-0-4---------2--------3-------2------3-----------------|
A|2-2---7-5-7-9-5-5---0-0-0-4---------------------------------------------------|
D|2-2---7-5-7-9-5-5---0-0-0-4-----x3--------------------------------------------|

Solo
e|---------------------------------------------------------------------------------------|
B|--------0----5-3-----------------------------------------------------------------------|
G|----0h2---------5-4-5-4-2-4-2-------------2-4-5-4-2-4~-------------2-4-5-4-2-4-4~------|
D|--2----------------------------5~-5-2-4-5---------------5~-5-2-4-5---------------------|
A|---------------------------------------------------------------------------------------|
D|---------------------------------------------------------------------------------------|

e|-----------------------------------------------------------------------------|
B|--5-3------------------------------------------------------------------------|
G|------5-4-5-4-2-4-2-------------2-4-5-4-2-4~------------2-4-5-4-2--2-4-5-----|
D|---------------------5~-5-2-4-5--------------5~-5-2-4-5-----------5----------|
A|-----------------------------------------------------------------------------|
D|-----------------------------------------------------------------------------|

e|------------------------------------|
B|-3-3-0-3-5-5-3-5-7-7-8-7-5-3-0-1----|
G|------------------------------------|
D|------------------------------------|
A|------------------------------------|
D|---------------------------------x4-|

e|---------------------------------------------------------------------------------------|
B|-3-3-0-3-5-5-3-5-7-7-5-7-8-8-7-8-10-10-8-10-12-12-10-12-13~13-12-13-15-15-13-15-17~----|
G|---------------------------------------------------------------------------------------|
D|---------------------------------------------------------------------------------------|
A|---------------------------------------------------------------------------------------|
D|---------------------------------------------------------------------------------------|

Chorus (starts same beat as last note of solo)
e|0-0-----------3-3---------2---------------------------------------------------------|
B|0-0-----------3-3---3-3-3-2-------------5--------5----------------------------------|
G|--------------------2-2-2--------------4-x16----4-x16-------------------------------|
D|2-2---7-5-7-9-5-5---0-0-0-4---------2--------3--------------------------------------|
A|2-2---7-5-7-9-5-5---0-0-0-4-----------------------------9\--------------------------|
D|2-2---7-5-7-9-5-5---0-0-0-4-----x3--------------------------------------------------|

outro
e|0-0-----------3-3---------2-----------------------------------------------|
B|0-0-----------3-3---3-3-3-2-----------------------------------------------|
G|--------------------2-2-2-------------------------------------------------|
D|2-2---7-5-7-9-5-5---0-0-0-4-----------------------------------------------|
A|2-2---7-5-7-9-5-5---0-0-0-4-----------------------------------------------|
D|2-2---7-5-7-9-5-5---0-0-0-4-----------------------------------------------|

e|---------------------------------------------3--3--------2--|
B|---------------------------------------------3--3--3-3-3-2--|
G|---------------------------------------------------2-2-2----|
D|-------------------------------------7-5-7-9-5--5--0-0-0-4--|
A|---7~---5~-5h7p5--4~----3~-----2~----7-5-7-9-5--5--0-0-0-4--|
D|-------------------------------------7-5-7-9-5--5--0-0-0-4--|

e|---------------------------------------------------------------------------|
B|---------------------------------------------------------------------------|
G|---------------------------------------------------------------------------|
D|-2-x12-4h5p4p0-------------------------------------------------------------|
A|--------------------x7-----------------------------------------------------|
D|---------------------------------------------------------------------------|

e|-----------------0----------------------------------------------------------|
B|--------------0--0----------------------------------------------------------|
G|-----------0h2--------------------------------------------------------------|
D|-2-x10----2------2----------------------------------------------------------|
A|-----------------2----------------------------------------------------------|
D|-----------------2----------------------------------------------------------|



ALTERNATIVE CHORUSES
the chorus in the tab above is the tab i chose to be correct, after listening closely. 
up your own mind, here is some different versions

Chorus alt 1
e|0-0-----------3-3---------------------------------------------------|
B|0-0-----------3-3---------------------------------------------------|
G|--------------------------------------------------------------------|
D|2-2---7-5-7-9-5-5---0-2-4-0-----------------------------------------|
A|2-2---7-5-7-9-5-5---0-2-4-0-----------------------------------------|
D|2-2---7-5-7-9-5-5---0-2-4-0-----------------------------------------|

Chorus alt 2
e|0-0-----------3-3---------------------------------------------------|
B|0-0-----------3-3---------------------------------------------------|
G|--------------------------------------------------------------------|
D|2-2---7-5-7-9-5-5---4-5-4-0-----------------------------------------|
A|2-2---7-5-7-9-5-5---4-5-4-0-----------------------------------------|
D|2-2---7-5-7-9-5-5---4-5-4-0-----------------------------------------|

Bass Line through verse
G------------------------------------|
D------------------------------------|
A------------------------------------|
D-2-2-4-6-7-7-9-7-5-5-7-5-0-2-4-0----|


OR
G-------------------------------|
D-------------------------------|
A---------0-0-2-0-----0---------|
D-2-2-4-6-----5-5--5-0-2-4-0----|

| /  slide up
| \  slide down
| h  hammer-on
| p  pull-off
| ~  vibrato
| +  harmonic
| x  Mute note
| b  Bend
| r  Release bend
===============================================================================
Tap to rate this tab
# A B C D E F G H I J K L M N O P Q R S T U V W X Y Z