Song name
# A B C D E F G H I J K L M N O P Q R S T U V W X Y Z

Billy Talent - Devil On My Shoulder tab

Help us improve GuitareTab! Take a short survey!
I tabbed the solo from "Devil On My Shoulder".
It's the solo Ian playing in the video from May 14 on billytalent3.com

You can watch it on:
http://www.billytalent3.com/media/video/IAN_solo_wide.flv

e----------------------------10-------------------------------------|
B----------10--15-15------------13-10----10-------------------------|
G-------10------------12b14-----------12----12-10----12-10----------|
D--5s12-------------------------------------------12-------12-10-12-|
A-------------------------------------------------------------------|
D-------------------------------------------------------------------|

e-----------------------------10------------------------------------|
B----------10--15-18p15----------13-10----10------------------------|
G-------10--------------12b14----------12----12-10-12-12b14b12-10s9-|
D--5s12-------------------------------------------------------------|
A-------------------------------------------------------------------|
D-------------------------------------------------------------------|

e-------------------------------------------------------------------|
B-----------------------------10-11-10------------------------------|
G--9h10b12-9h10-9--7s10-10-12----------12-10-12-10--7s9-------------|
D-------------------------------------------------------------------|
A-------------------------------------------------------------------|
D-------------------------------------------------------------------|

e--------------------------------10---------------------------------|
B-----------------------------------13-10---------------------------|
G--9h10b12-9h10-9--7s10---12b14-----------12-10-12-10--7------------|
D-------------------------------------------------------------------|
A-------------------------------------------------------------------|
D-------------------------------------------------------------------|
Related for Devil On My Shoulder tab