Guitaretab - guitar tabs
Song name
# A B C D E F G H I J K L M N O P Q R S T U V W X Y Z

Billy Talent - Rusted From The Rain tab

Intro
e-------------------------------------------------------------------|
b----------5-----------10--------------8----------------------------|
g------4-----4-------9---9--------7------7--------------------------|
d---2------------7--------------5--------------4--5--4--0--2-all-x3-|
a-------------------------------------------------------------------|
d-------------------------------------------------------------------|

e-------------------------------------------------------------------|
b-------------------------------------------------------------------|
g-------------------------------------------------------------------|
d-4-5-4-0-2----x4---------------------------------------------------|
a-------------------------------------------------------------------|
d-------------------------------------------------------------------|

Bass and Drums join in
e-------------------------------------------------------------------|
b----------5-----------10--------------8----------------------------|
g------4-----4-------9---9--------7------7--------------------------|
d---2------------7--------------5------------4--5--4--0--2--all x2--|
a-------------------------------------------------------------------|
d-------------------------------------------------------------------|

Verse
e-------------------------------------------------------------------|
b----------5-----------10--------------8----------------------------|
g------4-----4-------9---9--------7------7--------------------------|
d---2------------7--------------5--------------4--5--4--0--2-all-x3-|
a-------------------------------------------------------------------|
d-------------------------------------------------------------------|

Chorus

e-------------------------------------------------------------------|
b-------------------------------------------------------------------|
g-------------------------------------------------------------------|
d-2-2-----7-5-7-9-5--5--4-5-4-0-2------------2----------------------|
a-2-2-----7-5-7-9-5--5--4-5-4-0-2----x3------2--x12-----------------|
d-2-2-----7-5-7-9 5--5--4-5-4-0-2------------2----------------------|

Post-Chorus
e-------------------------------------------------------------------|
b----------5-----------10--------------8----------------------------|
g------4-----4-------9---9--------7------7--------------------------|
d---2------------7--------------5--------------4--5--4--0--2-all-x3-|
a-------------------------------------------------------------------|
d-------------------------------------------------------------------|

Verse
e--------------------------------------------------------------------|
b----------5-----------10--------------8-----------------------------|
g------4-----4-------9---9--------7------7---------------------------|
d---2------------7--------------5--------------4--5--4--0--2--all-x3-|
a--------------------------------------------------------------------|
d--------------------------------------------------------------------|

Chorus
[ Tab from: http://www.guitaretab.com/b/billy-talent/187212.html ]
e--------------------------------------------------------------------|
b--------------------------------------------------------------------|
g--------------------------------------------------------------------|
d-2-2-----7-5-7-9-5--5--4-5-4-0-2------------2-----------------------|
a-2-2-----7-5-7-9-5--5--4-5-4-0-2----x3------2--x12------------------|
d-2-2-----7-5-7-9 5--5--4-5-4-0-2------------2-----------------------|

Solo

e--------------------------------------------------------------------|
b------------5-3-----------------------------------------------------|
g----0-2-4-------5-4542420-----0245424-0------0245424-4---X2---------|
d-2------------------------2-4------------2-4------------------------|
a--------------------------------------------------------------------|
d--------------------------------------------------------------------|
		(Play at same rate, just spaced out to see the 10ís)
e--------------------------------------------------------------------|
b-3303-5505-7707-530-X4-3303-5505-7707-8808-10-10-0-10---------------|
g--------------------------------------------------------------------|
d--------------------------------------------------------------------|
a--------------------------------------------------------------------|
d--------------------------------------------------------------------|

e--------------------------------------------------------------------|
b-1212012-1313013-1515015-17~----------------------------------------|
g--------------------------------------------------------------------|
d--------------------------------------------------------------------|
a--------------------------------------------------------------------|
e--------------------------------------------------------------------|

Final Choruses
e---------------------------------------------------------------------|
b---------------------------------------------------------------------|
g---------------------------------------------------------------------|
d-2-2-----7-5-7-9-5--5--4-5-4-0-2------------2---------Repeat all x-2-|
a-2-2-----7-5-7-9-5--5--4-5-4-0-2----x3------2--x12-------------------|
d-2-2-----7-5-7-9 5--5--4-5-4-0-2------------2------------------------|

Outro
e--------------------------------------------------------------------|
b--------------------------------------------------------------------|
g--------------------------------------------------------------------|
d-2-2-----7-5-7-9-5--5--4-5-4-0-2---------2-----------Repeat all x-2-|
a-2-2-----7-5-7-9-5--5--4-5-4-0-2----x3---2órepeat as neccesary------|
d-2-2-----7-5-7-9 5--5--4-5-4-0-2---------2--------------------------|

End on
e--------------------------------------------------------------------|
b--------------------------------------------------------------------|
g----0--2--4---------------------------------------------------------|
d--2-----------------------------------------------------------------|
a--------------------------------------------------------------------|
d--------------------------------------------------------------------|
Related for Rusted From The Rain tab