Song name
# A B C D E F G H I J K L M N O P Q R S T U V W X Y Z

Billy Talent - The Dead Cant Testify tab

90% right, i'm not sure about hammer on's and pull off.

"h": hammer on
"p": pull off
"~": vibratto

Tuning: Drop D (for whole song, but stardart will go for solo)

e|---------------------------------------------------------------------|
B|---------------------------------------------------------------------|
G|------------5-7-----------7h8-7-0------7-0------7--------------------|
D|------5-7-8-----0-8-0-5-0---------10-8-----8h10---0-8-0-5-0-10p8-7~--|
A|5-6-8----------------------------------------------------------------|
D|---------------------------------------------------------------------|     
                                                                        
e|---------------------------------------------------------------------|
B|---------------------------------------------------------------------|
G|-----------------5h7-5-----------------------------------------------|
D|7h8-10-0-7-0-4-0-------0-8-7-10-0-5h7-8-0-5-0-8-0-7-5----------------|
A|---------------------------------------------------------------------|
D|---------------------------------------------------------------------|

  All 2x. Last note with vibratto second time.
Tap to rate this tab
 
# A B C D E F G H I J K L M N O P Q R S T U V W X Y Z