Song name
# A B C D E F G H I J K L M N O P Q R S T U V W X Y Z

Billy Talent - Devil On My Shoulder tab

Help us improve GuitareTab! Take a short survey!
-------------------------------------------------------------------------------
			     DEVIL ON MY SHOULDER (INTRO) - Billy Talent
-------------------------------------------------------------------------------
Tabbed by:DST
Email:extremly_confused@hotmail.com

Tuning:Drop D (DADGBe)

I have made a guitar pro tab for the whole song but some people can't use it i have 
One person has made an accurate tab of the solo from a video so i have decided to tab the 
and verse.

You can notice the starting chords are extremely similar to those in Living in the 
(it is also in the same key).

Chords:

e|---|
B|-6-|
G|-5-| = D minor 7th (1st finger barred on 5th fret, 3rd finger on 7th fret
D|-7-|   on the D(3rd) string and 2nd finger on 6th fret on B string)
A|-5-|
D|---|


Intro

e|----------------------------------------------|
B|--------10------8-----------------------------|
G|--------7-------6-----------------------------|
D|--------x-------x-----------------------3-----| x3
A|--------8-------7-----5p3p0---------5p0---5~--|
D|--0-0-0---0-0-0---0-0-------3/5h7p0-----------|

e|-------------------------------------------------|
B|--------10------8--------------------------------|
G|--------7-------6--------------------------------|
D|--------x-------x-----------------------3--------|
A|--------8-------7-----5p3p0---------5p0----------|
D|--0-0-0---0-0-0---0-0-------3/5h7p0-------5b7----|

Verse

e|----------------------------------------------------|
B|--2-3-6---------------------------------------------|
G|--2-3-6---------------------------------------------| x2
D|--2-3-6---------3-----------------------------------|
A|--0-1-4-----5p0-------------------------------------|
D|--------7p0-------5b7-------------------------------|

e|----------------------------------------------------|
B|--2-x-x-x-3-x-x-x-6-x-x-x---------------------------|
G|--2-x-x-x-3-x-x-x-6-x-x-x---------------------------|
D|--2-x-x-x-3-x-x-x-6-x-x-x---------3-----------------|
A|--0-x-x-x-1-x-x-x-4-x-x-x-----5p0-------------------|
D|--------------------------7p0-------5b7-------------|

e|----------------------------------------------------------------|
B|--2-x-x-x-3-x-x-x-6-x-x-x-6-6-6-6-6-6-6-6-8-8-8-8-10-10-10-10---|
G|--2-x-x-x-3-x-x-x-6-x-x-x-5-5-5-5-5-5-5-5-9-9-9-9-10-10-10-10---|
D|--2-x-x-x-3-x-x-x-6-x-x-x-7-7-7-7-7-7-7-7-9-9-9-9-10-10-10-10---|
A|--0-x-x-x-1-x-x-x-4-x-x-x-5-5-5-5-5-5-5-5-7-7-7-7-8--8--8--8----|
D|--------------------------0-0-0-0-0-0-0-0-----------------------|

Pre-Chorus

e|---------------------------------------------------------------------------------|
B|--------------6-6-------------6-6-------------6-6--------------------------------|
G|--------------5-5-------------5-5-------------5-5--------------------------------|
D|--5-5-3-5-7-0-7-7-5-5-3-5-7-0-7-7-5-5-3-5-7-0-7-7-7-7-7-7-7-7-7-7-8-8-8-8-8-8-8-8|
A|--5-5-3-5-7-0-5-5-5-5-3-5-7-0-5-5-5-5-3-5-7-0-5-5-7-7-7-7-7-7-7-7-8-8-8-8-8-8-8-8|
E|--5-5-3-5-7-0-----5-5-3-5-7-0-----5-5-3-5-7-0-----7-7-7-7-7-7-7-7-8-8-8-8-8-8-8-8|

Please let me know what you think! Practice and enjoy.

| b  bend (up to next note)
| /  slide up
| \  slide down
| h  hammer-on
| p  pull-off
| ~  vibrato
| +  harmonic
| x  Mute note
===============================================================================
Related for Devil On My Shoulder tab