Song name
# A B C D E F G H I J K L M N O P Q R S T U V W X Y Z

Billy Talent - Rusted From The Rain tab

____________________________________________________________________

RUSTED FROM THE RAIN (SOLO) - BILLY TALENT
____________________________________________________________________

Tabbed by:Kuzi
Email:dragonriderkuzi@web.de

OK, this is the solo of the song "Rusted from the rain" of Billy Talent
Hope you like it! If there is something wrong please message!!!

~ Vibrato
b bend
p pull-off
h hammer-on
\ slide down

E|----------|
B|----------|
G|---0h2-4--|
D|-2--------|
A|----------|
D|----------|

E|-----------------------|
B|--5-3------------------|
G|-----5--4h5-4\2-4p2-0-0|
D|-----------------------|
A|-----------------------|
D|-----------------------|  

E|-------------------------|------------------------------------|
B|-------------------------|------------------------------------|
G|-----0h2-4h5-4\2-4---0-0-|-----0h2-4h5-4\2-4---4--------------|
D|-2h4---------------------|-2h4--------------------------------|
A|-------------------------|------------------------------------|
D|-------------------------|------------------------------------|

E|-----------------------|
B|--5-3------------------|
G|-----5--4h5-4\2-4p2-0-0|
D|-----------------------|
A|-----------------------|
D|-----------------------|  

E|-------------------------|------------------------------------|
B|-------------------------|------------------------------------|
G|-----0h2-4h5-4\2-4---0-0-|-----0h2-4h5-4\2-4p2-0h2------------|
D|-2h4---------------------|-2h4--------------------------------|
A|-------------------------|------------------------------------|
D|-------------------------|------------------------------------|

E|----------------------|-------------|
B|-3-3-0-3-5-5-3-5-7-7--|-8-7-5-3-0-3-|
G|----------------------|-------------| Repeat 4X
D|----------------------|-------------| 
A|----------------------|-------------|
D|----------------------|-------------|

E|--------------------------------------------------------|
B|-3-3-0-3-5-5-3-5-7-7-5-7-8-8-7-8-10-10-8-10-12-12-10-12-|
G|--------------------------------------------------------|
D|--------------------------------------------------------|
A|--------------------------------------------------------|
D|--------------------------------------------------------|

E|------------------------------|
B|-13-13-12-13-15-15-13-15-17~--|
G|------------------------------|
D|------------------------------|
A|------------------------------|
D|------------------------------|

Tap to rate this tab
# A B C D E F G H I J K L M N O P Q R S T U V W X Y Z