Song name
# A B C D E F G H I J K L M N O P Q R S T U V W X Y Z

Billy Talent - White Sparrows tab

-------------------------------------------------------------------------------
			     White Sparrows – Billy Talent
-------------------------------------------------------------------------------
Tabbed by:PT-E
Email:

Tuning:1/2 Step down

 Intro 2x
|---------------------------------------------------------------------------|
|-------3p0------------7p0------------5p0---------------1p0-----------------|
|-----0-------0------0-------0------0-------0-------0-------2p0-------------|
|---2--------------5--------------4---------------2---2---------------------|
|-3---------3----7---------7----5---------5-----0---------------------------|
|---------------------------------------------------------------------------|

|---------------------------------------------------------------------------|
|---------------------------------------------------------------------------|
|--------------------2h4-5p4—2p0--------------------------------------------|
|-----2-5p2-4p2---4h5-------------------------------------------------------|
|---2-------------0---------------------------------------------------------|
|-2---------------0---------------------------------------------------------|


 Verse 2x
|-0----0----0----0----0----0------------------------------------------------|
|-7----5----7----5----3----5------------------------------------------------|
|-0----0----0----0----0----0----------------------2h4-5p4-2p0---------------|
|-5----4----5----4----5----4-------2-5p2-4p2--4h5---------------------------|
|-7----5----7----5----3----5-----2------------0-----------------------------|
|------------------------------2--------------0-----------------------------|


 Pre-Chorus 2x
|-0-0-0-0-0-0-0-0-2-2-2-2-2-2-2-2-3-3-3-3-3-3-3-5-5-5-5-5-5-5-5-5-----------|
|-5-5-5-5-5-5-5-5-5-5-5-5-5-5-5-5-5-5-5-5-5-5-5-5-5-5-5-5-5-5-5-5-----------|
|-5-5-5-5-5-5-5-5-5-5-5-5-5-5-5-5-4-4-4-4-4-4-4-4-4-4-4-4-4-4-4-4-----------|
|---------------------------------------------------------------------------|
|---------------------------------------------------------------------------|
|---------------------------------------------------------------------------|


 Chorus 2x
|-----------------5-5-5-5-5-5-5---------------------------------------------|
|-5-5-5-5-5-5-5-5-5-5-5-5-5-5-5-8-8-8-8-8-8-8-7-7-7-7-7-7-7-----------------|
|-5-5-5-5-5-5-5-5-5-5-5-5-5-5-5-9-9-9-9-9-9-9-7-7-7-7-7-7-7-----------------|
|-5-5-5-5-5-5-5-5-5-5-5-5-5-5-5-9-9-9-9-9-9-9-7-7-7-7-7-7-7-----------------|
|-3-3-3-3-3-3-3-3-3-3-3-3-3-3-3-7-7-7-7-7-7-7-5-5-5-5-5-5-5-----------------|
|---------------------------------------------------------------------------|



|---------------------------------------------------------------------------|
|-------3p0------------7p0------------5p0---------------1p0-----------------|
|-----0-------0------0-------0------0-------0-------0-------2p0-------------|
|---2--------------5--------------4---------------2---2---------------------|
|-3---------3----7---------7----5---------5-----0---------------------------|
|---------------------------------------------------------------------------|

|---------------------------------------------------------------------------|
|---------------------------------------------------------------------------|
|--------------------2h4-5p4—2p0--------------------------------------------|
|-----2-5p2-4p2---4h5-------------------------------------------------------|
|---2-------------0---------------------------------------------------------|
|-2---------------0---------------------------------------------------------|


 Then you play the verse again but this time it’s played differently. 
 I couldn’t figure out how.  


Pre-Chorus 2x
|-0-0-0-0-0-0-0-0-2-2-2-2-2-2-2-2-3-3-3-3-3-3-3-5-5-5-5-5-5-5-5-5-----------|
|-5-5-5-5-5-5-5-5-5-5-5-5-5-5-5-5-5-5-5-5-5-5-5-5-5-5-5-5-5-5-5-5-----------|
|-5-5-5-5-5-5-5-5-5-5-5-5-5-5-5-5-4-4-4-4-4-4-4-4-4-4-4-4-4-4-4-4-----------|
|---------------------------------------------------------------------------|
|---------------------------------------------------------------------------|
|---------------------------------------------------------------------------|


Chorus 
|-----------------5-5-5-5-5-5-5---------------------------------------------|
|-5-5-5-5-5-5-5-5-5-5-5-5-5-5-5-8-8-8-8-8-8-8-7-7-7-7-7-7-7-----------------|
|-5-5-5-5-5-5-5-5-5-5-5-5-5-5-5-9-9-9-9-9-9-9-7-7-7-7-7-7-7-----------------|
|-5-5-5-5-5-5-5-5-5-5-5-5-5-5-5-9-9-9-9-9-9-9-7-7-7-7-7-7-7-----------------|
|-3-3-3-3-3-3-3-3-3-3-3-3-3-3-3-7-7-7-7-7-7-7-5-5-5-5-5-5-5-----------------|
|---------------------------------------------------------------------------|
									2x

|-----------------5-5-5-5-5-5-5---------------7-7-7-7-7-7-7-----------------|
|-5-5-5-5-5-5-5-5-5-5-5-5-5-5-5-8-8-8-8-8-8-8-8-8-8-8-8-8-8-----------------|
|-5-5-5-5-5-5-5-5-5-5-5-5-5-5-5-9-9-9-9-9-9-9-7-7-7-7-7-7-7-----------------|
|-5-5-5-5-5-5-5-5-5-5-5-5-5-5-5-9-9-9-9-9-9-9-5-5-5-5-5-5-5-----------------|
|-3-3-3-3-3-3-3-3-3-3-3-3-3-3-3-7-7-7-7-7-7-7-5-5-5-5-5-5-5-----------------|
|---------------------------------------------5-5-5-5-5-5-5-----------------|


|-5-5-5-5-5-5-5-5-5-5-5-5-5-5-5-8-8-8-8-8-8-8-7-7-7-7-7-7-7-----------------|
|-6-6-6-6-6-6-6-6-6-6-6-6-6-6-6---------------------------------------------|
|-5-5-5-5-5-5-5-5-5-5-5-5-5-5-5-5-5-5-5-5-5-5-5-5-5-5-5-5-5-----------------|
|-3-3-3-3-3-3-3-3-3-3-3-3-3-3-3-5-5-5-5-5-5-5-5-5-5-5-5-5-5-----------------|
|-3-3-3-3-3-3-3-3-3-3-3-3-3-3-3-7-7-7-7-7-7-7-7-7-7-7-7-7-7-----------------|
|-3-3-3-3-3-3-3-3-3-3-3-3-3-3-3---------------------------------------------|


 
|---------------------------------------------------------------------------|
|---------------3-3-3----------------3-3-3----------------------------------|
|---------------2-2-2----------------2-2-2----------------------------------|
|-2-2-2-5-4-2-4-0-0-0--2-2-2-5-4-2-4-0-0-0----------------------------------|
|-2-2-2-----2---0-0-0--2-2-2-----2---0-0-0----------------------------------|
|-2-2-2-----2---0-0-0--2-2-2-----2---0-0-0----------------------------------|


|-----------------5-5-5-5-5-5-5---------------------------------------------|
|-5-5-5-5-5-5-5-5-5-5-5-5-5-5-5----------------3-3-3---------------3-3-3----|
|----------------------------------------------2-2-2---------------2-2-2----|
|-5-5-5-5-5-5-5-5-5-5-5-5-5-5-5--2-2-2-5-4-2-4-0-0-0--2-2-2-5-4-2-4-0-0-0---|
|-3-3-3-3-3-3-3-3-3-3-3-3-3-3-3--2-2-2-----2---0-0-0--2-2-2-----2---0-0-0---|
|--------------------------------2-2-2-----2---0-0-0--2-2-2-----2---0-0-0---|


|---------------------------------------------------------------------------|
|---------------3-3-3-------------------------------------------------------|
|---------------2-2-2-------------------------------------------------------|
|-2-2-2-5-4-2-4-0-0-0-------------------------------------------------------|
|-2-2-2-----2---0-0-0-------------------------------------------------------|
|-2-2-2-----2---0-0-0-------------------------------------------------------|

|---------------5-5-5-5-5-5-5-5---------------------------------------------|
|-5-5-5-5-5-5-5-5-5-5-5-5-5-5-5---------------------------------------------|
|-5-5-5-5-5-5-5-5-5-5-5-5-5-5-5------------------2h4-5p4-2p0----------------|
|-5-5-5-5-5-5-5-5-5-5-5-5-5-5-5--2-2-2-2-2-2-4h5----------------------------|
|-3-3-3-3-3-3-3-3-3-3-3-3-3-3-3--2-2-2-2-2-2--------------------------------|
|--------------------------------2-2-2-2-2-2--------------------------------|
                                 x x x x x x

Chorus 
|-----------------5-5-5-5-5-5-5---------------------------------------------|
|-5-5-5-5-5-5-5-5-5-5-5-5-5-5-5-8-8-8-8-8-8-8-7-7-7-7-7-7-7-----------------|
|-5-5-5-5-5-5-5-5-5-5-5-5-5-5-5-9-9-9-9-9-9-9-7-7-7-7-7-7-7-----------------|
|-5-5-5-5-5-5-5-5-5-5-5-5-5-5-5-9-9-9-9-9-9-9-7-7-7-7-7-7-7-----------------|
|-3-3-3-3-3-3-3-3-3-3-3-3-3-3-3-7-7-7-7-7-7-7-5-5-5-5-5-5-5-----------------|
|---------------------------------------------------------------------------|
									2x

|-----------------5-5-5-5-5-5-5---------------7-7-7-7-7-7-7-----------------|
|-5-5-5-5-5-5-5-5-5-5-5-5-5-5-5-8-8-8-8-8-8-8-8-8-8-8-8-8-8-----------------|
|-5-5-5-5-5-5-5-5-5-5-5-5-5-5-5-9-9-9-9-9-9-9-7-7-7-7-7-7-7-----------------|
|-5-5-5-5-5-5-5-5-5-5-5-5-5-5-5-9-9-9-9-9-9-9-5-5-5-5-5-5-5-----------------|
|-3-3-3-3-3-3-3-3-3-3-3-3-3-3-3-7-7-7-7-7-7-7-5-5-5-5-5-5-5-----------------|
|---------------------------------------------5-5-5-5-5-5-5-----------------|

							   2x
|-5-5-5-5-5-5-5-5-5-5-5-5-5-5-5-8-8-8-8-8-8-8-8-7-7-7-7-7-7-----------------|
|-6-6-6-6-6-6-6-6-6-6-6-6-6-6-6---------------------------------------------|
|-5-5-5-5-5-5-5-5-5-5-5-5-5-5-5-9-9-9-9-9-9-9-9-9-9-9-9-9-9-----------------|
|-3-3-3-3-3-3-3-3-3-3-3-3-3-3-3-9-9-9-9-9-9-9-9-9-9-9-9-9-9-------------2---|
|-3-3-3-3-3-3-3-3-3-3-3-3-3-3-3-7-7-7-7-7-7-7-7-7-7-7-7-7-7-------------2---|
|-3-3-3-3-3-3-3-3-3-3-3-3-3-3-3-----------------------------------------2---|


| /  slide up
| \  slide down
| h  hammer-on
| p  pull-off
| ~  vibrato
| +  harmonic
| x  Mute note
===============================================================================
Tap to rate this tab
# A B C D E F G H I J K L M N O P Q R S T U V W X Y Z